ACORDES:> D# E LA Cm A# G# C# G

UN SALUDO DESDE LA PUERTA DE ENTRADA AL MUNDO MAYA
CAMPECHE, MEXICO. ESTE TAB FUE HECHO POR PERRRUZZY.

ESTA ROLA SE LAS DEDICO A MIS BRODERS: ALBERTO, MONCHO,
JORGE, Y MUNDO. GRUPO: ALABANZA VIVA

**************************************************************

[INTRO:] (primero entra el teclado con el bombo)
      (Justamente después entra la guitarra - w/ “delay”)

             Re#
          e |---------------------------| esta figura
          B |-----------------16--16~---| se hace como
          G |-----15-----15-------------| siete veces
          D |--13------13---------------|  casi ocho
          A |---------------------------| porque entra
          E |---------------------------|    la voz


[CORO:]
              Re#
         Vamos a cantar con la música del cielo
              Dom
         Vamos a cantar alegres porque escuchas
                La#            Sol#   La#    Re#
         Cuando cantamos para exaltar tu nombre

[INTERMEDIO:]

            Re#
          e |---------------------------------|
          B |---------------------------------|
          G |---------------------------------| seis
          D |---------------------------------| veces
          A |--6-6-6-6-6-6-6/11-10-10-10/6----| (x6)
          E |---------------------------------|


[ESTROFA 1:]
                Re#
                Amamos todo de ti
                Cielo y tierra te adoran
              Dom
                Los reinos se rinden
                                         La#
                Hijo de dios tú eres por quien
                             Sol#
                Tú eres por quien
                        Re#
                Vivimos hoooy

[ESTROFA 2:]
                Re#
                Tú eres quien nos liberta
                Tú eres la luz que guía
               Dom
                Y como un fuego ardiente
                                         La#
                Hijo de dios tú eres por quien
                            Sol#
                Tú eres por quien
                        Re#
                Vivimos hoooooy
[INTERMEDIO:]

             Re#
          e |---------------------------------|
          B |---------------------------------|
          G |---------------------------------| dos
          D |---------------------------------| veces
          A |--6-6-6-6-6-6-6/11-10-10-10/6----| (x2)
          E |---------------------------------|

[CORO:]

              Re#
         Vamos a cantar con la música del cielo
              Dom
         Vamos a cantar alegres porque escuchas
                La#
         Cuando cantamos -->


[SOLO GUITARRA:]


       Sol#    La#     Re#
   Para exaltar tu nombreeeeeeeeeeeeeeeeee      eeh
                e|----------------------------------|
                B|----------------------------------|
                G|----------------------------------|
                D|----------------------------------|
                A|---6-6-6-6-6-6-6/11-10-10-10/6----|
                E|----------------------------------|

                   Do#
                   eeeeh
                e|----------------------------------|
                B|----------------------------------|
                G|----------------------------------|
                D|----------------------------------|
                A|--4-4-4-4-4-4/11-10-10-10/3-3-3---|
                E|----------------------------------|

                    Re#
                e|----------------------------------|
                B|----------------------------------|
                G|----------------------------------|
                D|---11-13-13-13-11-13-13-13--------|
                A|----------------------------------|
                E|----------------------------------|


             e|----------------------------------------------|
             B|--14-16-16-14-16-16-14-16-16-14-16-16---------|
             G|---------------------------------------8~~~---|
             D|---------------------------------------8~~~---|
             A|---------------------------------------6~~~---|
             E|---------------------------------------6~~~---|


[CORO:] (este coro se acompaña únicamente con organillo)

                       Re#
         Vamos a cantar con la música del cielo
              Dom
         Vamos a cantar alegres porque escuchas
                La#            Sol#   La#    Re#
         Cuando cantamos para exaltar tu nombre

[INTERMEDIO:]
             Re#
          e |---------------------------------|
          B |---------------------------------|
          G |---------------------------------|  dos
          D |---------------------------------| veces
          A |--6-6-6-6-6-6-6/11-10-10-10/6----| (x2)
          E |---------------------------------|


       (NO CHORD)
         Vamos a cantar con la música del cielo
              Dom
         Vamos a cantar alegres porque escuchas
                La#           Sol#    La#    Re#
         Cuando cantamos para exaltar tu nombre

[SALIDA:]
               Re#
          e ||||--------------------------------||||---------|
          B ||||--------------------------------||||---------|
          G ||||----esto-se-toca-4-veces--------||||---------|
          D ||||--------------------------------||||---8~~~--|
          A ||||--6-6-6-6-6-6-6/11-10-10-10/6---||||---6~~~--|
          E ||||--------------------------------||||---6~~~--|

[FIN]

CUALQUIER COSA ME MANDAN UN MAIL
hmguitarmanxx@itelcel.com
QUE EL SEÑOR DIOS TODOPODEROSO LOS BENDIGA SIEMPRE