Bueno acá está la version del tema NextWeek, del cd Obras Cumbres.
(aunque es muy parecida a la de Corpiños en la madrugada)

Algunas indicaciones:
s: slide o barrida.


Intro:
G-12s13-12s13-----------------------------
D-11s12-11s12-----------------------------
A-----------------------------------------
E------------0000000000000053535300000000- x4

Silencio del bajo.
Come one little baby
wan't you love next week
I want to love you next week

Come on lady
show me next week
I want to show you
next week

I said come on baby
know me next week
I wanna know you next week

I said come on lady
do it next week
I want to do it next week
yeah!!

Vuelve el bajo con el YEAH!
G-------------------------------12s13-12s13----
D-------------------------------11s12-11s12----
A----------------------------------------------
E--12s00000000000053535300000000---------------x2

Silencio de bajo de nuevo:
Dame nena dame nesquick
quiero tu nesquick
Digo: dale baby
dame nesquick
nesecito nesquick

Vuelve:
I said come on little lady
show me next week... etc...

G-12s13-12s13-----------------------------
D-11s12-11s12-----------------------------
A-----------------------------------------
E------------0000000000000053535300000000-

Repite hasta casi el final que vuelve a cortar.
Después sigue con lo mismo..

Espero que les sirva.. yo intenté tocarla con la otra tablatura
de la página y sonaba cualquier cosa.. entonces la saqué con mi
profe y como estaba al pedo la subí.

Abrazo gente,
suerte