Boton-punteos Punteos, por Anónimo

Intro:

1||-4-4-4-4-8-8-8-4-8-4-6-3-|-3-3-3-3-6-6-6-3-6-3-4-1-|
2||-6-6-6-6-9-9-9-6-9-6-8-4-|-4-4-4-4-8-8-5-4-8-4-6-2-|
3||-------------------------|-------------------------|
4||-------------------------|-------------------------|

                                  *riff princ.
1||-----4---4---4---3---1--------|------------|
2||-2/6---6---6---4---2---1-4-1--|------------|
3||---------------------------1--|-1-0--------|
4||------------------------------|-----3-1-3--|

Boton-acordes Acordes, por Sofy Sarno

La forma más fácil de tocarla es con capo en el
primer traste.
Los acordes tóquenlos como si no hubiera capo.
A VOLAR!!!!

INTRO

Em D C G


Em                 D
Eres como una mariposa, vuelas y te posas 

En esta página podrás encontrar acordes y tablaturas de la canción Mariposa traicionera, de Maná.

Letra de Mariposa traicionera, de Maná

Eres como una mariposa 
vuelas y te posas vas de boca en boca
facil y ligera de quien te provoca

Yo soy raton de tu ratonera
trampa que no mata pero no libera
vivo muriendo prisionero

Mariposa traicionera
todo se lo lleva el viento
mariposa no regreso

Ay,mariposa de amor,
mi mariposa de amor
ya no regreso contigo
ay,mariposa de amor,
mi mariposa de amor
nunca jamas justo a ti

Vuela amor, vuela dolor
y no regreses a un lado
ya vete de flor en flor
seduciendo, a los pistilos
y vuela cerca del sol
pa'que sientas lo que es dolor

Ay, mujer como haces daño
pasan los minutos cual si fueran años
mira estos celos me estan matando

Ay, mujer que facil eres 
abres tus alitas,
muslos de colores
donde se posan tus amores

Mariposa traicionera
todo se lo lleva el viento
mariposa no regreso

Ay, mariposa de amor,
mi mariposa de amor
ya no regreso contigo
ay, mariposa de amor,
mi mariposa de amor
nunca jamas junto a ti

Vuela amor, vuela dolor
que tengas suerte en tu vida
ay,ay,ay,ay,ay dolor
yo te llore todo un rio
ay,ay,ay,ay,ay, amor
tu te me vas a volar