Boton-punteos Acordes y punteos, por Nicanor Perera

  SOL        SI7        MIm         Do
e|----------|----------|-----------|-----------|
G|3--0---0-3|4--0---0-4|5--0------0|3---1-1---0|
B|----2-0---|----2-0---|-----2-0-2-|-----------|
D|----------|----------|-----------|-----------|

  SOL        RE         SOL         RE
e|----------|----------|-----------|-----------|
G|3--0-----0|-3----0---|-----------|-----------|
B|----2-0-2-|---------2|0----------|-----------|
D|----------|----------|-----------|-----------|

Boton-acordes Acordes, por Anónimo

G        B7
Flaca, no me claves
Em            C
tus puñales por la espalda,
	   G          D7
tan profundo, no me duelen,
	  G       D7
no me hacen mal.

Lejos, en el centro
de la tierra, las raices
del amor donde estaban

En esta página podrás encontrar acordes y tablaturas de la canción Flaca, de Andrés Calamaro.

Letra de Flaca, de Andrés Calamaro

Flaca, no me claves
tus puñales, por la espalda
tan profundo, no me duelen
no me hacen mal.

Lejos, en el centro
de la tierra, las raíces
del amor, donde estaban
quedarán.

Entre no me olvides me dejé nuestros abriles
olvidados, en el fondo del placard
en el cuarto de invitados, eran tiempos dorados
un pasado mejor.

Aunque casi me equivoco y te digo poco a poco
no me mientas, no me digas la verdad
no te quedes callada, no levantes la voz
ni me pidas perdón.

Aunque casi te confieso yo también he sido un
perro compañero, un perro ideal
que aprendió a ladrar y a volver al hogar
para poder comer.