Intro: 
Segunda guitarra:
   Do#m     La            Si       Sol#m
   v  v    v ^  ^ v v v   V  V    v ^  ^ v v v
E|------|--5-5--5-5-5-5-|-7--7--|-4-4--4-4-4-4-
A|-4--4-|--7-7--7-7-7-7-|-9--9--|-6-6--6-6-6-6-
D|-6--6-|--7-7--7-7-7-7-|-9--9--|-6-6--6-6-6-6- x3
G|-6--6-|---------------|-------|--------------
B|------|---------------|-------|--------------
e|------|---------------|-------|--------------

Primera Guitarra:
   v  v     v ^  ^ v v v   V  V    v ^  ^ v v v
E|--------|--------------|-7--7--|-------------
A|-4--4---|--------------|-9--9--|-------------
D|-6--6---|--------------|-9--9--|-------------
G|-6--6---|--------------|-------|------------- x3
B|--------|-5-5--5-5-5-5-|-------|-4-4--4-4-4-4
e|--------|-5-5--5-5-5-5-|-------|-4-4--4-4-4-4


   v  v    v ^  ^ v v v   V  V    v ^  ^ v v v
E|------|--5-5--5-5-5-5-|-7--7--|-4-4--4-4-4-4-
A|-4--4-|--7-7--7-7-7-7-|-9--9--|-6-6--6-6-6-6-
D|-6--6-|--7-7--7-7-7-7-|-9--9--|-6-6--6-6-6-6-
G|-6--6-|---------------|-------|--------------
B|------|---------------|-------|--------------
e|------|---------------|-------|--------------

PRIMERA GUITARRA
   v v     v ^  ^ v v v  V V v v     v v v  v
E|-------|-------------|-7-7-7-7---|-4-3-4----------
A|-4-4---|-------------|-9-9-9-9---|-6-5-6--3--------
D|-6-6---|-------------|-9-9-9-9---|-6-5-6--3--------
G|-6-6---|-------------|-----------|--------5-----
B|-------|-5-5--5-5-5-5|-----------|-------------
e|-------|-5-5--5-5-5-5|-----------|-------------


LETRA:
SEGUNDA GUITARRA
Do#m      La            Mi
   Nos fue tragando la rutina
          Si           Do#m     La Mi Si
   Fue llenando de vacios
  Do#m        La           Mi
   Fuimos ahogando la palabra
         Si           Do#m      La Mi Si
   Y explotando en puros líos

  Do#m   Mi           Si
   Te deseo suerte amor
          Fa#m        Do#m   La Mi Si
   Ya me voy al olvido
Do#m  Mi            Si
   Solo le pido a dios,
   Fa#m     Do#m   La Mi Si
   Darte alivio

  00:40 min*
PRIMERA GUITARRA

E|------|----------|--------------------
A|------|----------|--------------------
D|------|----------|--------------------
G|---9---8---8---10|---5---5---7---7----X2
B|--8---6---6---9--|--4---4---6---6-----
e|-8---6---6---8---|-3---4---6---6------

00:59 min
E|-----------|----------|-------|-------------
A|-----------|----------|-------|-------------
D|-----------|----------|-------|-------------
G|-----------|----------|-------|-------------
B|-----------|----------|-------|-------------
e|-4--4-11-6-|----------|-------|-------------

Coro.
SEGUNDA GUITARRA
 (F#m,F#m, G#m A)

   Do#m  La
   Arde
   Si         Sol#m        Do#m   La
   Arde el cielo y el dolor
   Si          Sol#m
   Arde mi espiritu
   Do#m        La        Si
   Arde el amor y la luz
    Sol#m            Do#m   La Si Sol#m   Do#m
   Arde el cielo amor

01:25 min*
LETRA
Do#m          La
   Salio el halcon
              Mi
   Salio el demonio
         Si             Do#m   La Mi Si
   Un infierno, un manicomio
   Do#m         La              Mi
   Gritos, violencia, platos rotos
         Si          Do#m   La Mi Si
   Como ciega la demencia


  01:25 min*

E|------------|
A|------------|
D|------------|X4
G|--5--5--7--7|
B|-4--4--6--6-|
e|3--4--6--6--|

  01:44 min*
Do#m    Mi            Si
   Solo yo te pido amor
         Fa#m          Do#m   La Mi Si
   Que nunca te abandones
Do#m  Mi            Si
   Solo le pido a dios,
   Fa#m     Do#m   La Mi Si
   Darte alivio

    (F#m,F#m, G#m A)

01:44 min*

E|------|----------|--------------------
A|------|----------|--------------------
D|------|----------|--------------------
G|---9---8---8---10|---5---5---7---7----X2
B|--8---6---6---9--|--4---4---6---6-----
e|-8---6---6---8---|-3---4---6---6------
   02:03 min*
G|-----------|----------|-------|-------------
B|-----------|----------|-------|-------------
e|-4--4-11-6-|----------|-------|-------------


Coro.
SEGUNDA GUITARRA
Do#m La
Do#m  La
   Arde
   Si         Sol#m        Do#m   La
   Arde el cielo y el dolor
   Si          Sol#m
   Arde mi espiritu
   Do#m        La        Si
   Arde el amor y la luz
    Sol#m            Do#m   La Si Sol#m
   Arde el cielo amor

   Do#m   La  Si        Sol#m     Do#m    La
   Sangra, sangra el cielo y la luz
     Si          Sol#m
   Sangra mí espiritu
   Do#m        La        Si
   Arde el amor y la luz
    Sol#m            Do#m   La Si Sol#m
   Arde el cielo amor

*SOLO
   02:46 min*
E|----------------------------------------
A|-3/5-5-5-5--8-8-8-------10-10-10-10-10--
D|-3/5-5-5-5--8-8-8-10-10-10-10-10-10-10--x4
G|------------------10-10-----------------
B|----------------------------------------
e|----------------------------------------
el solo se acompaña con el toque de arriba(por eso se repite
4 veces)

al terminar el solo sigue esto
  03:05 min*
E|-8---8-8-10-11---------|-------------
A|-8---8-8-10-11---------|-------------
D|-----------------------|-------------
G|-----------------------|-------------
B|-----------------------|-------------
e|-----------------------|-------------

despues

*esto se toca con la introduccion
Do#m  La
   Arde
   Si         Sol#m        Do#m   La
   Arde el cielo y el dolor
   Si          Sol#m
   Arde mi espiritu
   Do#m        La        Si
   Arde el amor y la luz
    Sol#m            Do#m   La Si Sol#m
   Arde el cielo amor

   Do#m   La  Si        Sol#m     Do#m    La
   Sangra, sangra el cielo y la luz
     Si          Sol#m
   Sangra mí espiritu
   Do#m        La        Si
   Arde el amor y la luz
    Sol#m            Do#m   La Si Sol#m
   Arde el cielo amor

     segunda guitarra
  Do#m     La            Si       Sol#m
   v  v    v ^  ^ v v v   V  V    v ^  ^ v v v
E|------|--5-5--5-5-5-5-|-7--7--|-4-4--4-4-4-4-
A|-4--4-|--7-7--7-7-7-7-|-9--9--|-6-6--6-6-6-6-
D|-6--6-|--7-7--7-7-7-7-|-9--9--|-6-6--6-6-6-6- x3
G|-6--6-|---------------|-------|--------------
B|------|---------------|-------|--------------
e|------|---------------|-------|--------------

*ESTA ES LA PRIMERA GUITARRA
   v  v     v ^  ^ v v v   V  V    v ^  ^ v v v
E|--------|--------------|-7--7--|-------------
A|-4--4---|--------------|-9--9--|-------------
D|-6--6---|--------------|-9--9--|-------------
G|-6--6---|--------------|-------|------------- x3
B|--------|-5-5--5-5-5-5-|-------|-4-4--4-4-4-4
e|--------|-5-5--5-5-5-5-|-------|-4-4--4-4-4-4

*ESTA PARTE VA DESPUES DE HABER HECHO LOS 5 RASGUEOS DE ARRIBA
ESTO LO ASEN
SEGUNDA GUITARRA
   v  v     ^ ^ v ^
E|--------|----------|
A|-3--3---|-6-6-6-6--|
D|-5--5---|-6-6-6-6--|
G|-5--5---|----------|
B|--------|----------|
e|--------|----------|
PRIMERA GUITARRA
   v v      ^  ^  v  ^    v ^ v v     v v v  v
E|--------|-------------|-6-6-6-6---|-4-3-4----------
A|-3-3----|-------------|-8-8-8-8---|-6-5-6--3--------
D|-5-5----|-------------|-8-8-8-8---|-6-5-6--3--------
G|-5-5----|-------------|-----------|--------5-----
B|--------|-11-11-11-11-|-----------|-------------
e|--------|-11-11-11-11-|-----------|-------------

y se buelve a repetir la itroduccion pero aora solo 3 veces
 03:55
Si          Sol#m       Do#m
  Trozos del cielo en ardor
   Si          Sol#m       Do#m
  Trozos del cielo en ardor
       Si                Sol#m    Do#m   La Si Sol#m
   Se esta quemando el cielo yaaa....

y te lo repito puedes tocar este coro con la introduccion
(arriba)
E|----------------------------------------------------
A|----------------------------------------------------
D|----------------------------------------------------
G|-5---5-------3---3---3---5---5---------------------5-x6
B|---4-----4-4---4---6---4---4-----4-4---3-4-3---3-4---
e|-------6-----------------------6-------------3-------

     segunda guitarra
   v  v    ^ ^ v ^   V  V     ^ ^  V  ^
E|------|----------|-6--6--|-10-10-10-10-
A|-3--3-|--6-6-6-6-|-8--8--|-10-10-10-10-
D|-5--5-|--6-6-6-6-|-8--8--|-------------
G|-5--5-|----------|-------|-------------
B|------|----------|-------|-------------
e|------|----------|-------|-------------

 PRIMERA GUITARRA
   v  v     ^  ^  v  ^    ^  ^     ^  ^  v  ^
E|--------|-------------|-6--6----|-------------
A|-3--3---|-------------|-8--8----|-------------
D|-5--5---|-------------|-8--8----|-------------
G|-5--5---|-------------|---------|-------------
B|--------|-11-11-11-11-|---------|11-11-11-11--
e|--------|-11-11-11-11-|---------|10-10-10-10--

SEGUNDA GUITARRA
   v  v     ^ ^ v ^
E|--------|----------|
A|-3--3---|-6-6-6-6--|
D|-5--5---|-6-6-6-6--|
G|-5--5---|----------|
B|--------|----------|
e|--------|----------|
PRIMERA GUITARRA
   v  v    v ^  ^ v v v   V  V    v ^  ^ v v v
E|------|--5-5--5-5-5-5-|-7--7--|-4-4--4-4-4-4-
A|-4--4-|--7-7--7-7-7-7-|-9--9--|-6-6--6-6-6-6-
D|-6--6-|--7-7--7-7-7-7-|-9--9--|-6-6--6-6-6-6-
G|-6--6-|---------------|-------|--------------
B|------|---------------|-------|--------------
e|------|---------------|-------|--------------
PRIMERA GUITARRA
   v v     v ^  ^ v v v  V V v v     v v v  v
E|-------|-------------|-7-7-7-7---|-4-3-4-------
A|-4-4---|-------------|-9-9-9-9---|-6-5-6--3----
D|-6-6---|-------------|-9-9-9-9---|-6-5-6--3----
G|-6-6---|-------------|-----------|--------5----
B|-------|-5-5--5-5-5-5|-----------|-------------
e|-------|-5-5--5-5-5-5|-----------|-------------