ACORDES:> A E F#m D B C#7

MODIFICACION A LA TRANSCRIPCION DE:
Martin (vaquero303@hotmail.com)
**********************************************************************

Esta es una correccion de la vercion subida por martin
le cambie un par de acordes q me sonaban mas
y le agregue el punteo de la intro
espero q les guste!

Intro:
      La Mi Fa#m Re
      A E F#m D (aca hace una pequeña subida) DD E F#m
      Fa#m Mi Re
      La Mi Re Re

Punteo que va sobre la intro

E|--5-2--5-4---4-2---------------------------------------------|
B|-----2----5-2---2---3-2-3-2----------------------------------|
G|-----------------2-------------------------------------------|
D|-------------------------------------------------------------|
A|-------------------------------------------------------------|
E|-------------------------------------------------------------|

E|--5-2--5-4---4-2---------------------------------------------|
B|-----2----5-2---2---3-2-3------------------------------------|
G|-----------------2-------------------------------------------|
D|-------------------------------------------------------------|
A|-------------------------------------------------------------|
E|-------------------------------------------------------------|

E|-------------------------------------------------------------|
B|--7---7-5---5-3-2-3-2-3-2-3-2--7---7-5---5-3-2-3-2-3-2-3-2---|
G|---6-----4----------------------6-----4----------------------|
D|----7-----6----------------------7-----6---------------------|
A|-------------------------------------------------------------|
E|-------------------------------------------------------------|


Verso 1:
Fa#m         La              Mi              Si
Te burlaste de mis sueños, siempre me trataste mal
Fa#m        La              Mi           Si
Te miraba, me veía, y eso me gustaba tanto
Fa#m         La             Mi              Si
Me acerqué, quise hablar, pero vos querías pelear
Fa#m          La        Mi            Si
Y a mí tanto me gustó que no te duré ni un round.

Precoro 1:
Re        La       Mi          Si
 Y a veces pienso, cuando me quedo solo
Re          La         Do#7
 Te extraño, te lloro, que lindo arruinarse con vos.

Coro 1:
La     Mi          Fa#m Re
 Y el día estuvo mal, hoy te soñé
La    Mi            Fa#m     Re         Mi  Fa#m
 No quiero recordarte más, no me hace bien
     Mi             Re            La
 Quisiera comprender que estás muy lejos
       Mi             Re            Mi
 Y que no te importa nada de lo que me pasa.

Y cada vez que pienso en vos, quiero volver
Y el brillo de tus ojos rojos, yo quiero ver
Detesto no saber, si te acordas de mí
O no te importa nada de lo que me pasa.

Verso 2:
(Rapeado sobre acordes de Verso)
Estoy un poco ansioso y se termina el día
Ando buscando un poquitito de tu adrenalina
Y en mi cabeza encuentro sólo resignaciones
Estoy pagando el precio de mis buenas intenciones
En qué estaba pensando cuando me vine acá
Tiene que haber alguna buena forma de escapar
Si bien algunas cosas pudieron mejorar
Me está aburriendo esta mentira de la libertad.

Precoro 2:
(Silencio)
Y a veces pienso, cuando me quedo solo
Te extraño, te lloro, que lindo arruinarse con vos
(Como Precoro 1)
Te juro, linda, me está costando mucho
Termino los días cansado de extrañarte.

Coro 2:
Y el día estuvo mal, hoy te soñé
Odiabas el amanecer y yo también
Quisiera comprender que estás muy lejos
Y que no te importa nada de lo que me pasa.

Y cada vez que pienso en vos, quiero volver
Y el brillo de tus ojos rojos, yo quiero ver
Detesto no saber si te acordas de mí
O no te importa nada de lo que me pasa.

Coro 3:
Y el día estuvo mal, hoy te soñé
Las noches con el huracán, hoy me acordé
Quisiera comprender que estás muy lejos
Y que no te importa nada de lo que me pasa.

Y cada vez que pienso en vos, quiero volver
Y el brillo de tus ojos rojos, yo quiero ver
Detesto no saber si te acordas de mi
  Mi             Re            Mi          La
O no te importa nada de lo que me pasa.


Cualquier cosita o duda pregunten! brunog_22@hotmail.com
Gracias!