ACORDES:> A G C Am7 D Bm

A)
Sol            Do           Lam7      Re
|------------------------|-----0-----2--2--
|------------------------|----1-----3---3--
|------0--------0--------|---0-----2----2--
|----0---0----2---2------|--2-----0-----0--
|--2-------2-3------3-2-0|-----------------
|------------------------|-----------------
Sin brillantes conclusiones ni versículos de fuego

Sim            Do           Lam7      Sol
|-----------------------|-----0------------3----
|--------3--------------|----1--1----------3----
|------4--------0-------|---0----0---------0----
|----4-------2---2------|--2---------------0----
|--2--------3------3-2-0|------------------2----
|-----------------------|------------------3----
sin palabras que hagan juego con grandes decoraciones;


Lam7            Sim          Lam7      Sol
|-----------------------|-----0-------------3----
|----1---------3--------|----1--1-----------3----
|---0---------4---------|---0----0----------0----
|--2---------4----------|--2----------------0----
|-0---------2-----------|-0-----------------2----
|-----------------------|-------------------3----
sin humos o presunciones, más bien con talante exiguo

Sol            Do           Lam7      Re
|-2--------------------------------|
|-3--------------------------------|
|-2--------------0--------0--------|
|-0------------0---0----2---2------|
|------------2-------2-3------3-2--|
|----------------------------------|
me declaro trovador antiguo.


Igual a A)

Soy de donde los patriotas
daban nombres a las calles.
Soy de un río, soy de un valle
y de una familia rota.
soy de un pueblo en bancarrota,
de un San Antonio fiestero
donde hoy sólo el viento sopla entero.

Re           Do          Sol    Do  Lam7
El nuevo trovador antiguo

Re           Do          Sol    Do  Lam7
se acerca a la procesión.

Re           Do          Sol    Do  Lam7
Le dice adiós al mundo ambiguo

Re           Do          Sol    Do  Lam7
y pone pie en el caracol.

Re           Do          Sol    Do  Lam7
Escena sucedida tanto,

Re           Do          Sol    Do  Lam7
anónimo el compositor.

Re           Do          Sol    Do  Lam7
El horizonte es el espanto;

Re           Do          Sol    Do  Lam7
la miniatura, el amor.

Igual a A)

También nací en Centrohabana,
rumba de supervivencia,
son de perdida inocencia
en clamor de pena urbana;
venerable afrocubana
de existencia fabulosa,
hembra sobrenatural y diosa.

Igual a A)

Recorriendo sus esquinas
vuelvo a sentir la fragancia
de una calle de mi infancia
barrial y capitalina:
San Miguel, ángel en ruinas
de inmaculada bandera,
luz vitral de mi canción primera.

Coro:
El nuevo trovador antiguo
se alinea con la procesión.
Le dice adiós al mundo ambiguo
y pone pie en el caracol.
Escena sucedida tanto,
anónimo el compositor.
El horizonte es el espanto;
la miniatura, el amor.

Igual a A)
Ahora soy de la memoria,
ahora pertenezco al viento;
otro dirá en su momento
si fui más pena que gloria.
Lo que fue nuevo es historia
y lo que nace alza vuelo
con el sueño de tocar el cielo.

Igual a A)
Partero fui de un futuro
escurridizo, inasible,
seguramente posible
si no le ponemos muros.
El amor es el más puro
néctar contra la tristeza.
Bienvenida su naturaleza.

Coro:

El nuevo trovador antiguo
se alinea con la procesión.
Le dice adiós al mundo ambiguo
y pone pie en el caracol.
Escena sucedida tanto,
anónimo el compositor.
El horizonte es el espanto;
la miniatura, el amor