E |---------0---------------------------------------------------------------------|
B |-------0--------0--------0-------------0----------0----------0--------2/3/2----|
G |-----0--------0---0----0---0---------0----------0----------0--------2----------|
D |---2--------1--------0-------------2----------2----------2--------2------------|
A |---------------------------------4----------3----------2--------0--------------|
E |-------------------------------------------------------------------------------|
     No soy otra cosa que  uno del montón que un día desconfió del rebaño,

E |-----------------------------------------------------------0/2----|
B |-------0------0----------0------3---------1-3-----3------3--------|
G |-----0----------0------0--------0-------0-------0------2----------|
D |---0--------2--------2--------0-------2-------0------0------------|
A |-------------------3--------2-------0-----------------------------|
E |-3--------0---------------------------------3---------------------|
 ...soy carne de todo y esa condición no admite el más mínimo engaño.


E |-------0----------------------------------------------------------0--|
B |-----0--------0--------0----------0--------0--------0-----0/2---2----|
G |---0--------0---0----0---0------0--------0--------0-----------2------|
D |----------1--------0----------2--------2--------2--------2-----------|
A |----------------------------4--------3--------2--------0-------------|
E |-0-------------------------------------------------------------------|
   Me azotan los vientos, me bate la mar, y danzo si tiemblan los suelos.

E |----------------------------------2-----------------------------0/2--------2-|
B |-------0--------0--------0--3------------1---1---------0-------3---------0---|
G |-----0--------0--------0--------2--------------------0-------2---------2-----|
D |---0--------2--------2--------4--------2---2---2---0-------0---------1-------|
A |-------------------3--------2--------0---------------------------------------|
E |-3--------0---------------------------------------3--------------------------|
   Pero mi garganta no sabe cantar          si mi corazón no alza vuelo.

                                                       Am  D7/F#  G  
E |-------0---------------------------------------------------------------|
B |-----0--------0----------2--------1-------------2----1----1------0-----|
G |---0--------0---0------2--------0-------------0------2----2----0-------|
D |----------0----------2--------2-------------2--------2----0--------0---|
A |-------------------4--------3-------------1----------0-----------------|
E |-0--------------------------------------------------------2----3-------|
  Para eso no hay alas, ni globo, ni avión. Para eso solo hay el amor.
  Para eso no hay mando, para eso no hay Dios. Para eso solo hay el amor.

       G   Em6                    C                Bbº       Am  D7/F#       G 
E |----3----3------------------- -3------------------------------------------3-|
B |----3----2---------------------1-----------------2---------1----1---------3-|
G |-------------------------------0-----------------0---------2----2-----------|
D |---------2---------------------2-----------------2---------2----0-----------|
A |----2----2---------------------3-----------------1---------0--------------2-|
E |----3----0------------------------------------------------------2---------3-|
              Para eso no hay oro, París, Nueva York. Para eso solo hay el amor.
              Pudiera ser,         o acaso ser,       no se, puede ser, que se yo...


                                                                         A Luli.