Esta es la intro..

|--------0------------1h3-1--------------0-------
|------1---1--------3--------3---------0---0-----
|---0-------0----2-------------2-----1-------0---
|--------2-----0-------------------------2-------
|-3--------------------------------2-------------
|------------------------------------------------
      Do       Rem                 Mi

----1-----3-------1------------0-----------0------
----------------0---0--------0---0-------3---3----
--2-----0-----0------ 0----0-------0---2------2---
3------0------------------------------------------
-------------2------------2----------2-----------
--------------------------------------------------
Fa     Sol    Sol7         Sol6         Solmaj9


|-------0------------1h3-1-------------0-------
|-----1---1--------3-------3---------0---0-----
|---0-------0----2-----------2-----1-------0---
|-------2-----0------------------------2-------
|-3-------------------------------2------------
|----------------------------------------------
  Do          Rem                      Mi

----1-----3-------1-----------0----------0------
----------------0---0-------0---0------3---3----
--2-----0-----0------0----0------0---2------2---
3------0----------------------------------------
------------2------------2----------2-----------
------------------------------------------------
Fa    Sol   Sol7        Sol6       Solmaj9

 …..empieza la cancion…..


Es mi segunda transcripción espero les guste…
no es exacta pero suena bien… asi es como la toco yo,
 ya que la saque yo de oido.
 Toquenla con la cancion para medir bien los tiempos.
 Se aceptan criticas. Marote_93cj@hotmail.com