Mujeres
intr:
E---------------------------------------------------------------
B---------------------------------------------------------------
G---1-----------1-----1--4-----4--------1-----1--4-----4--4-----
D------2-----------2--------6--------------2--------6--------4--
A---------------------------------------------------------------
E---------------------------------------------------------------
                                                                        

2 veces                                                                        
E------------------------------------------0--------------------
B------------------------------------------0--------------------
G---1-----1--4-----4--2-----2--1-----------1--------------------
D------2--------6--------4--------2--------2--------------------
A------------------------------------2-----2--------------------
E---------------------------------------0--0--------------------
                                           E  D/F# A E

E---------------------------------------------------------------
B---------------------------------------------------------------
G---1-----1--4-----4--2-----2--6-----6--4-----4--7-----7--6-----
D------2--------6--------4--------7--------6--------9--------7--
A---------------------------------------------------------------
E---------------------------------------------------------------
                                                                        

                                                                        
E----------------------------------------------------0----------
B----------------------------------------------------0----------
G--6--4----4--6-----6--4-----4--2-----2--1-----------1----------
D-------6--------7--------6--------4--------2--------2----------
A----------------------------------------------2-----2----------
E-------------------------------------------------0--0----------
                                                                        


E        E7/D     E7/C#       Cmaj7...
Me estremeció la mujer que empinaba a sus hijos
Hacia la estrella de aquella otra madre mayor
Y como los recogía del polvo teñidos
Para enterrarlos debajo de su corazón

E        E7/D     Cmaj7     Esus2....
Me estremeció la mujer del poeta, el caudillo
Siempre a la sombra y llenando un espacio vital
Me estremeció la mujer que incendiaba los trillos
                                     E   E7/D  E7/C#   Cmaj7
De la melena invencible de aquel alemán.

D         G        F#m...
Me estremeció la muchacha
Hija de aquel feroz continente
Que se marchó de su casa
Para otra de toda la gente

      B       F#         A         E...
Me han estremecido un montón de mujeres
   B        F#       A       E     D/F# A E  D/F# A E
Mujeres de fuego, mujeres de nieve...
                                                                   
(Arpegio de la introducción)

Pero lo que me ha estremecido
Hasta perder casi el sentido
Lo que a mi más me ha estremecido
Son tus ojitos, mi hija, son tus ojitos divinos

E        E7/D     E7/C#       Cmaj7...
Me estremeció la mujer que parió once hijos
En el tiempo de la harina y un kilo de pan
E        E7/D    Cmaj7   Esus2...
Y los miró endurecerse mascando carijos
                                          E  E7/D  E7/C# Cmaj7
Me estremeció porque era mi abuela además

D         G         F#m...
Me estremecieron mujeres
Que la historia anotó entre laureles
Y otras desconocidas, gigantes
Que no hay libro que las aguante

Me han estremecido un montón de mujeres
Mujeres de fuego, mujeres de nieve

Pero lo que me ha estremecido
Hasta perder casi el sentido
Lo que a mi más me ha estremecido
Son tus ojitos, mi hija, son tus ojitos divinos.