+ Servidor FTP de la Universidad de Leon        +
+ ftp://est.unileon.es/pub/musica/acordes/esp/  +
+++++++++++++++++++++++++++++++++++++++++++++++++

Acordes:
   Lam   Rem    Mi   Fa#   Do    Sol    Fa
E|--0----1----0----0----0----3----1---
B|--1----3----0----3----1----0----1---
G|--2----2----1----0----0----0----2---
D|--2----0----2----0----2----0----3---
A|--0---------2----2----3----2----3---
E|------------0---------0----3----1---


Intro.:
E|--0--------------1-----------1--0--
B|--1--1--1--0-----3--0--1--3-----0--
G|--2-----------2--2--------------1--
D|--2--------------0--------------2--
A|--0-----------------------------2--
E|--------------------------------0--

     Lam              Rem         Mi
     No se crean que es majadería.

E|--------------1--0-----0-----------
B|-----0--1--3--------3-----1--0-----
G|--2-----------------------------1--
D|-----------------------------------
A|-----------------------------------
E|-----------------------------------

     Lam                 Rem            Mi
     Que nadie se levante aunque me ría.
     Lam       Fa#    Do                 Sol
     Hace rato que vengo lidiando con gente
     Lam          Fa#   Do                Sol
     que dice que yo canto cosas indecentes.
          Do           Lam
     Te quiero, mi amor,
     Fa             Sol
     no me dejes solo.
          Do             Lam
     No puedo estar sin ti
     F    (F#)      G
     mira que yo lloro.
     Lam                 Rem
     ¿No ven?, ya soy decente:
               Mi    
     me fue fácil.
     Lam                  Rem               Mi
     Que el público se agrupe y que me aclame.
     Lam            Fa#     Do
     Que se acerquen los niños,
                       Sol
     los amantes del ritmo.
     Lam           Fa#   Do                Sol
     Que se queden sentados los intelectuales.
            Fa
     Debo partirme en dos.
            Mi
     Debo partirme en dos.
                       Lam
     Unos dicen que aquí,
                       Fa
     otros dicen que allá
                     Lam
     y sólo quiero decir,
                     Fa
     sólo quiero cantar
                        Rem
     y no importa la suerte
                  Do
     que pueda correr
              Sol
     una canción.
     Mi                Lam
     Unos dicen que aquí,
                      Fa
     otros dicen que allá
                     Lam
     y sólo quiero decir,
                     Fa
     sólo quiero cantar,
                        Rem
     y no importa que luego
             Do            Sol     Mi
     me suspendan la función.

E|--0-----------------0-----------------
B|--1-----------------0-----------------
G|--2-----------------1-----------------
D|--2--0--2--0--2--0--2-----------------
A|--0-----------------2--0--2--0--2--0--
E|--------------------0-----------------


(*** En los proximos versos se repiten los acordes de arriba ***)

     Yo también canté en tonos menores.
     Yo también padecí de esos dolores.
     Yo también parecía cantar como un santo.
     Yo también repetí en millones de cantos:

     Te quiero, mi amor,
     no me dejes solo.
     No puedo estar sin ti
     mira que yo lloro.

     Pero me fui enredando en más asuntos
     y aparecieron cosas de este mundo:
     «Fusil contra fusil», «La canción de la Trova»
     y «la era pariendo» se puso de moda.
     Debo partirme en dos.

     Unos dicen que aquí,
     otros dicen que allá
     y sólo quiero decir,
     sólo quiero cantar
     y no importa la suerte
     que pueda correr
     una canción.
     Unos dicen que aquí,
     otros dicen que allá
     y sólo quiero decir,
     sólo quiero cantar,
     y no importa que luego
     me suspendan la función.

     Yo quería cantar encapuchado
     y después confundirme a vuestro lado
     aunque así no tuviera amigos y citas
     y algún que otro favor de una chica bonita.

     Te quiero, mi amor,
     no me dejes solo.
     No puedo estar sin ti
     mira que yo lloro.

     No voy a repetir ese estribillo.
     Algunos ojos miran con mal brillo
     y estoy temiendo ahora no ser interpretado:
     casi siempre sucede que se piensa algo malo.
     Debo partirme en dos.

     Unos dicen que aquí,
     otros dicen que allá
     y sólo quiero decir,
     sólo quiero cantar
     y no importa la suerte
     que pueda correr
     una canción.
     Unos dicen que aquí,
     otros dicen que allá
     y sólo quiero decir,
     sólo quiero cantar,
     y no importa que luego
     me suspendan la función.