Les puedo asegurar que asi va realmente esta canción, se los
explicare lo mas detalladamente posible esta completa
no esta dificil:

Intro

||-------------------------------------------------------||-------3-------3-------------------3-------3-----------||--------------------------2--------------------------2-||----4h5-----4h5---5-4-2-2------4h5-----4h5---5-4-2-2---||-------------------------------------------------------||--3-------3---------0-0-0-2--3-------3---------0-0-0-2-
al terminar de tocar lo de arriba inmediatamente lo de abajo
no se detiene en nada solo hay que oir la cancion para 
agarrar el ritmo

|-------------------------------------|
|-------3-------3---------3-------3---|
|-------------------------------------|
|---4h5-----4h5---5---4h5-----4h5---5-|
|-3-------3---------0-------0---------|
|-------------------------------------|


luego esto.......

|-------------------2-----------3-----1-3-2-0h2p0----------|
|-------3-----3-------3-------1---1-----3-3-------0h1------|
|-----0---0-----0-------2---0-------0---2-2----------------|
|---4-------4-----4----------------------------------------|
|-2-----------------------3--------------------------------|
|-----------------------------------------------------3----|

Ahora aqui es cuando empieza a cantar
rasgueado se oye mas bonito. jeje

  Sol                       Mim  
Estoy buscando una escafaldra

'Un poco antes de que acaba de cantar esa parte tocan esto:
(oyendo la cancion te daras cuenta)

Riff 1
|------------------------------|
|------------------------------|
|-------------2p0--------------|
|-2p0-2-4-5-4-----4-5-2p0------|
|------------------------------|
|-------------------------3----|

  Sol                        Mim
En el umbral de tu misterio

Riff 2
|----------------------------------|
|---------------------1p0----------|
|-------------2p0---------2p0------|
|-2p0-2-4-5-4-----4-5--------------|
|-----------------------------3----|
|----------------------------------|
 G4                   Am
Quien fuera Alibaba      
                          Sim
Quien fuera el mitico Simbad
                               Do
Quien fuera un poderoso Sortilegio
       Re        
Quien fuera encantador. 

Apartir de aquí tocan una parte del Intro osea esto:




||------------------||-------3-------3--||------------------||----4h5-----4h5--- despues el Riff 1
||------------------||--3-------3-------
|------------------|-------3-------3--|------------------|----4h5-----4h5--- despues el Riff 2
|------------------|--3-------3-------
|-------------------------------------|
|-------3-------3---------3-------3---|
|-------------------------------------|
|---4h5-----4h5---5---4h5-----4h5---5-|
|-3-------3---------0-------0---------|
|-------------------------------------|

|-------------------2-----------3-----1-3-2-0h2p0----------|
|-------3-----3-------3-------1---1-----3-3-------0h1------|
|-----0---0-----0-------2---0-------0---2-2----------------|
|---4-------4-----4----------------------------------------|
|-2-----------------------3--------------------------------|
|-----------------------------------------------------3----|

de Ahi empieza a Cantar y la estructura de la cancion es la misma
es una cancion hermosa
cualquier duda a mi correo
El Final lo pueden tocar como la otra transcripcion de
Quien fuera (Que en realidad es la misma)
 

G4
 

 0
 3 
 2
 0
 3
 3