sencillo                   doble
    verso 1                verso 2, coro y final
e----------0------------------0-------0--------
B--------0------------------0--------0-0-0-----
G------0------------------0-----0---0---0-0----
D----------------------------------------------
A---0------------------0-----------------------
E----------------------------------0-----------

*en esta parte va un rasgueo hacia abajo con duración de cuatro tiempos

intro
   Am      G       F       E  (dos veces)  Am       (aquí entra la voz)
e-----0--0----3--3----1--1--------0---------------0---
B----1-1--1--0-0--0--1-1--1-----0---------------1-----
G---2---2---0---0---2---2-----1---------------2-------
D-----------------------------------------------------
A--0---------------3-----------------------0----------
E----------3---------------0--------------------------


(verso 1)
                       Sol
un hotel que no es de nadie,
                    Fa
una cama que no es mía,
                    Mi   Lam
se me muere un día más.
                      Sol
un avión a cualquier parte,
                Fa
una mano que saluda,
                       Mi   Do
no recuerdo bien quién es.

(verso 2)
                   Sol
un saludo en internet,
                  Fa
una novia en la cartera
                    Mi   Do
y una foto con los fans.
                 Sol
el salir en la tele
                  Fa
buscando algún remedio
               Mi
contra la soledad.


coro
     Lam
soledad acompañada,
     Sol
soledad endemoniada,
         Fa
tantos gritos, tantas luces,
       Mi
tanta gente y soledad.
     Lam
soledad de no estar solo,
     Sol
soledad de andar pensando
        Fa
si valdrá algún día la pena
         Mi
tanta ausencia por cantar.

     Do
soledad de andar buscando,
     Sol
soledad de deshacerse,
      Fa
deshacerse de esos sueños 
           Mi
que se hicieron realidad.
     Lam
soledad de no estar solo,
     Sol
soledad de andar pensando
        Fa
si valdrá algún día la pena
         E      *        Am(arpegio sencillo)
tanta ausencia por... cantar

intro

(verso 1)
un sueño de pastilla,
un café que me incorpora,
un diario bajo la puerta.
a las diez una entrevista,
trae consigo algo de muerte
y se roba algo de mí.

(verso 2)
mientras que un itinerario
me maneja por la vida
como pieza de ajedrez.
si cantar por vocación
no es cuestión de calendario
sino de respirar.


coro
     Lam
soledad acompañada...

   Do
a dónde van la prisa?,
       Sol
los aplausos las canciones?,
   Fa
a dónde va ese tiempo?
       Mi
que gané o que perdí...
      Am* 
cantando