Sol              Sol            Sol       Sol
 e-----10----------10-----------10---------10-------
 b----8--8--------8--8---------8--8-------8--8------
 g---7----7------7----7-------7----7-----7-----7----
 d--------------------------------------------------
 a-7-----------9-----------10---------10------------
 e--------------------------------------------------

  Sol              Sol            Sol       Sol
 e-----10----------10-----------10--------15----
 b----8--8--------8--8---------8--8-------------
 g---7----7------7----7-------7----7------------
 d----------------------------------------------
 a-7-----------9-----------10-------------------
 e----------------------------------------------

           Sol                         Re
 que hace el sexo en internet?;  el pudor en la vedette?
 e---------10---------------10-------------------5-------------5------
 b-------8----8-----------8----8---------------7---7---------7---7----
 g-----7--------7-------7--------7-----------7-------7-----7-------7--
 d--------------------------------------------------------------------
 a--10---------------10--------------------5-------------5------------
 e--------------------------------------------------------------------
          Do                       Sol
        que hace un porsche en TelAviv?
 e---------3-------------3---------------10---------8/7-5-7/5-3----
 b-------5---5---------5---5-----------8----8----------------------
 g-----5-------5-----5-------5-------7--------7--------------------
 d-----------------------------------------------------------------
 a---3-------------3--------------10-------------------------------
 e-----------------------------------------------------------------
  AQUI SE LO MISMO

  Sol                  Re                    Do
 un pigmeo en un iglu? una duda en un guru?
                       Sol
  que hace frida sin sufrir ?



  Re                            Mim
 Si asi, como quien no quiere la cosa,
      Do           Sol                     Re
 mas facil dispara rosas un misil, que tu un quizás
 Do                                   Sol
 quien me manda a ser adicto de tus besos?
                    Re                   Mim
 si la luna no es de queso, ni tu boca souvenir,
 Do                          Sol                           Re
 que hace un casto en un motel? que hace un genio en un cuartel?
         Do            Sol  Re      Do
 y que estas haciendo tu     sin mi ?


 Sol       Re           Mim  Do      Sol           Lam
  Que estas haciendo tu? que estoy haciendo yo..
 Do                    Sol
  subastando en el mercado,
                 Re                          Mim
 besos tan improvisados con despecho al portador
 Sol      Re            Mim  Do      Sol            Lam
  que estas haciento tu? que estoy haciendo yo...
 Do                         Sol
  malgastando en cualquier cama,
                   Re                          Mim
 lo que se nos de la gana pa' vengarnos de los dos.


 Do                        Sol                     Mim
 Que hace un lunes en verano? un judio sin paisanos?
        D            C      Em-D/F#-G
 y que estoy haciendo yo sin ti ??  (aqui se hace el intro)

 Sol                           Re                        Do
 Que hace un hippie en la oficina? una orca en la piscina?
                  Sol
 una monja en carnaval?
                            Re                         Do
 que haces tu cuando estas sola, chapuseandote en las olas
                   Sol
 de un pasado que paso...?


         Re                              Mim
 Que hago yo cuando el domingo es por la tarde
        Do               Sol                         Re
 y el campeon se hace cobarde y pregunta: donde estas?
         Do                     Sol                          Re
 ya no estoy para los versos de Neruda, si en mi cama no figura
                     Mim
 ni un buen beso de alquiler.
 Do                     Sol                     Re
 que hace luz sin Monalisa? un nudista con camisa?
        Do            Sol   Re     Do
 y que estoy haciendo yo    sin ti??



 Sol       Re           Mim  Do      Sol           Lam
  Que estas haciendo tu? que estoy haciendo yo..
 Do                    Sol
  subastando en el mercado,
                 Re                          Mim
 besos tan improvisados con despecho al portador
 Sol      Re            Mim  Do      Sol            Lam
  que estas haciento tu? que estoy haciendo yo...
 Do                         Sol
  malgastando en cualquier cama,
                   Re                          Mim
 lo que se nos de la gana pa' vengarnos de los dos.


 Sol                    Re                               Do
  Que hace un 30 de febrero? que hace un rey sin heredero?
              Re        Sol Re     Do
 y que estoy haciendo yo   sin ti?? (intro)