Re                                   Sim
e------------2---------------2------------------2-----------------2-------
B-------3--------3-------3-------3----------3-------3---------3--------3---
G-----2---2----2---2---2---2---2---2------4---4---4---4-----4---4---4----4-
D---0----------------------------------------------------------------------
A--------------------0------------------2----------------0-----------------
E--------------------------------------------------------------------------


   Sol               La               Re
e---------3----------------0---------------2---------------2--------------
B-----3-------3--------3-------3-------3-------3-------3-------3----------
G---0---0---0---0----2---2---2---2---2---2---2---2---2---2---2---2--------
D----------------------------------0---------------0----------------------
A------------------0------------------------------------------------------
E-3-----------------------------------------------------------------------


  Sol               La               Re        Sim
e---------3---------------0-----------------------------------------------
B-----3-------3-------3-------3-------3---------3------3------------------
G---0---0---0---0---2---2---2---2---2---2-----4--4---4---4----------------
D---------------------------------3---------------------------------------
A-----------------0------------------------2-------0----------------------
E-3-----------------------------------------------------------------------


  Sol               La              Re
e---------3--------------0---------------2---------------2---------------
B-----3-------3------3-------3-------3-------3-------3-------3------------
G---0---0---0---0--2---2---2---2---2---2---2---2---2---2---2---2---------
D--------------------------------3---------------3------------------------
A----------------0--------------------------------------------------------
E-3-----------------------------------------------------------------------


Introducción DD
Re                                   Sim
Jesus es mas que una simple y llana teoria
Sol                 La                 Re
Que haces hermano leyendo la biblia todo el dia
Sol                          La         Re         Sim
lo que ahi esta escrito se resume en amor anda ve y practicalo
Sol                      La                Re
Jesus hermanos mios es verbo no sustantivo


Jesus es mas que un templo de lujo con tendencia barroca
El sabe que total a la larga esto no es mas que roca
la iglesia se lleva en el alma y en los actos no se te olvide
Jesus hermanos mios es verbo no sustantivo


Jesus es mas  que un grupo de señoras de muy negra conciencia
que pretenden ganarse el cielo con un club de beneficiencia
si quieres tu ser miembro activo tendras que presentar a la directiva
tu cuenta de ahorros en Suiza y retiros oficiales


Jesus es mas que pergsinarse y hacer de esto alarde
El sabe que quiza por dentro la conciencia les arde
Jesus es mas que una flor en el altar salvadora de pecados
Jesus hermanos mios es verbo no sustantivo


Jesus convertia en hechos todos sus sermones
que si tomas cafe es pecado dicen los mormones
tienen tan poco que hacer que andan inventando cada cosa
Jesus hermanos mios es verbo no sustantivo


Jesus no entiende porque en el culto le aplauden
hablan de honestidad sabiendo que el diezmo es un fraude
a Jesus le da asco el pastor que se hace rico con la fe
Jesus hermanos mios es verbo no sustantivo


De mi barrio la mas religiosa era doña Carlota
hablaba de amor al projimo y me ponchó cien pelotas
Desde niño fui aprendiendo que la religion no es mas que un metodo
prohibido pensar que ya todo esta escrito


Me bautizaron cuando tenia 2 meses y a mi no ve avisaron
Hubo fiesta piñata y a mi ni me preguntaron
bautizame tu jesus, asi entre amigos
se que odias el protocolo hermano mio


Señores no dividan la fe las fronteras son para los paises
en este mundo hay mas religiones que niños felices
Jesus penso me hare invisible para que todos mis hermanos
dejen de estar hablando tanto de mi y se tiendan la mano


Jesus eres el mejor testigo del amor que te profeso
tengo la conciencia tranquila y por eso no me confiezo
rezando 3 padres nuestros el asesino no revive a su muerto
Jesus hermanos mios es verbo no sustantivo


Jesus no bajes a la tierra quedate ahi arriba
todos lo que han pensado como tu hoy estan boca arriba
olvidados en algun cementerio de equipaje sus ideales
murieron con la sonrisa en los labios porque fueron verbo y no sustantivo