Intro:

e---------------------------
B-----0-2-2h5-5-2-3-2-0---5-
G----2------------------2---
D---2-----------------------
A---------------------------
E---------------------------

e-----------------0---
B-------2-3-2-0---0---
G---2-4---------2-1---
D-----------------0---
A-----------------2---
E---------------------

    La                         Fa#m
No vengas con sermones, ni alabanzas
    Re                         Mi
ni vuelvas a decir lo que ya se
 La                   Fa#m
trae tus aretes de mudanza
         Re                          Mi
y el vestido a quel que siempre te quite


      Sim                         Fa#m
Te invito a que me invites esta noche
    Sol                          Re
al pecado que jamas yo te invite
    Sim                            Fa#m
te pido a que te abstengas de reproches
    Sol              Re            Mi
si todos mis defectos ya los se


 La                   Fa#m
Haaay amores como el tuyo
     Sim              Re           Mi
que duelen cuando estan o si se van
 La                 Fa#m
Haaay amores sin orgullo
     Bm          D           E   (aqui hacen una pausa)
que viven de perder la dignidad


 Sim                      Fa#m
Tu vida me sirvio para morirme
    Sol                            Re
la muerte me enseño que hay que vivir

Intermedio---

La Fa#m Re Mi


No arregles lo que no se descompuso
que nadie aqui esta listo pa' cambiar
amores que se gastan con el uso
merecen libertad y descansar


No pidas que te diga lo que sabes
ni quieras tu saber lo que no sé
de todo lo demas tienes las llaves
y si hace falta algo lo olvide


Haaay amores como el tuyo
que duelen cuando estan o si se van
haaay amores sin orgullo
que viven de perder la dignidad

 La  Fa#m                   Re           Mi
        Hay amores, haaay amoreeeeees...


 La                  Fa#m
Haaay amores sin orgullo
     Sim          Re           Mi
que viven de perder la dignidad
 Sim                      Fa#m
Tu vida me sirvio para morirme
    Sol                              Re
la muerte me enseño que hay que vivir!!

Final...

e---------------------------
B-----0-2-2h5-5-2-3-2-0---5-
G----2------------------2---
D---2-----------------------


e---------------------
B-------2-3-2-0---2---
G---2-4---------2-2---
D-----------------2---