Intro:Dm
e||--------------------------------------|
B||--------------------------9-11-9-10-9-|
G||----------7-9-7-9-10-9-11-------------|
D||-7-9-8-7-9----------------------------|


e||12-13-12-13-11-9-8-9-8-9-6-4/4-5-4-5-4-2-2-2-1-|
B||-----------------------------------------------|
G||-----------------------------------------------|
D||-----------------------------------------------|


Rem                              Lam       
Carabelas cargadas de malos presagios emisarios de la 
 La#                  Do
trampa y de la colonizacion
Rem                               Lam     
Tocan tierra provocando un gran naufragio,cargados de
 La#                   Do
demonios y nueva religion
Lam                  Mim         Do               Re
Tocaron tierra de Guanahani bienvenida la desolacion

B||-----------------------3-3-3-1-----|
G||-----------8-8-9-8-7-6-------------|
D||--7-9-8-7-9------------------------|

Rem                          Lam                    La#
Esos sueños de estafa y de saqueo ese gusto por el oro
                  Do
esas ancias de poder
Rem                                Lam          
Es el cancer que aun enferma al Heredero es la historia
         La#                   Do
de una tierra condenada a padecer.
Lam                Mim           Do   
Pero el Negro el indio y el español se mezclaron para
              Re
darle un gusto a Dios
Lam                 Mim            Do
Pero el negro,el indio y el español se mexclaron para
                   D9-Dm
darle un gusto a Dios

Re9
e||--0--
B||--2--
G||--3--