INTRO

E||--15-----------------------15---------------------|
B||---------12----13----------------12----13---------|
G||--------------------14-----------------------14---|
D||--------------------------------------------------|


E||--15-----------------------15---------------------|
B||---------12----13----------------12----13---------|
G||--------------------14-----------------------14---|
D||--------------------------------------------------|


 La nana la desperto a las 6:42
E||--15-----------------------15---------------------|
B||---------12----13----------------12----13---------|
G||--------------------14-----------------------14---|
D||--------------------------------------------------|


 la nena arruga los ojos pa' que no entre la luz
E||--15-----------------------15---------------------|
B||---------12----13----------------12----13---------|
G||--------------------14-----------------------14---|
D||--------------------------------------------------|


 Recita la oración de siempre para cumplir con dios
--12----------------15----------15------------------------|
------------13--12------15--12--------12---13---13---15---|
--------12------------------------------------------------|
----------------------------------------------------------|


 Acto seguido en el pecho se dibuja una cruz
--12----------------15----------15------------------------|
------------13--12------15--12--------12---13-------------|
--------12-----------------------------------------14-----|
----------------------------------------------------------|


de quien es el auto que espera dos cuadras al sur.
----------------------------------|
----------------------------------|
----------------------------------|
----------------------------------|


 armada con libros de texto la lleva el chofer
E||--15-----------------------15---------------------|
B||---------12----13----------------12----13---------|
G||--------------------14-----------------------14---|
D||--------------------------------------------------|


 mama la despide en la puerta agitando los brasos
E||--15-----------------------15---------------------|
B||---------12----13----------------12----13---------|
G||--------------------14-----------------------14---|
D||--------------------------------------------------|

La nena tiene 9 años como iva a saber
--12----------------15----------15------------------------|
------------13--12------15--12--------12---13---13---15---|
--------12------------------------------------------------|
----------------------------------------------------------|


que hace mas de 4 meses que le siguen los pasos
--12----------------15----------15------------------------|
------------13--12------15--12--------12---13-------------|
--------12-----------------------------------------14-----|
----------------------------------------------------------|


y el auto que espera a dos cuadra enciende el motor
----------------------------------|
----------------------------------|
----------------------------------|
----------------------------------|


( aqui entra la guitarra arpegeando en Lam)

 un tiro al chofer en la cien la nena va a la deriva
E||--15-----------------------15---------------------|
B||---------12----13----------------12----13---------|
G||--------------------14-----------------------14---|
D||--------------------------------------------------|


un arbol detiene la inercia ellos la tienen rodeada
E||--15-----------------------15---------------------|
B||---------12----13----------------12----13---------|
G||--------------------14-----------------------14---|
D||--------------------------------------------------|


 su frente dio contra un cristal y le ha abierto una herida
--12----------------15----------15------------------------|
------------13--12------15--12--------12---13---13---15---|
--------12------------------------------------------------|
----------------------------------------------------------|


los vecinos encienrran con llave nadie a visto nada
--12----------------15----------15------------------------|
------------13--12------15--12--------12---13-------------|
--------12-----------------------------------------14-----|
----------------------------------------------------------|


y al mano que mato a su chofer| la nena es un uno con ceros
ahora le opaca los gritos     | apartir de hoy
------------------------------|--------------------------||
------------------------------|--------------------------||
------------------------------|--------------------------||
------------------------------|--------------------------||