Rem            Solm 
Te tenemos allí
Rem             Solm
abandonado allí
Rem
preso como un animal
Solm
como un animal feroz
Rem                           Solm     Do         Rem Solm 
así las cosas, la fiera más fiera ¿dónde está?
(intro)

El toxi-taxi viene y va
y tu sombra va detrás (Fill 1)
de hordas de notables con los secretos para ser
un negocio tan pequeño y simple como vos. (Fill 2)

Do                    La#
Un toque por si las moscas van
C                    Bb        (Fill 3)
y otro toque por si vas detrás
Do                      La#
ya no hay tiempo de lamentos
C              Dm Gm Intro
ya no hay más.

Un sueño con Luis María
muerto cuando me decía:
'cada día veo menos
cada día veo menos, creo, menos mal'.

Intro:
                                       (1)             
e---------------^-------^-------------^---------------
b-----------------------------------------------------
g----------2-0----------------------------------------
d--0-0-0-3--------3-0-2----3-2-3-2-3-----2------------
a------------------------------------------1-1-1-1/3--
e-----------------------------------------------------

  (2)
e-------------^-----
b-------------------
g-------------------
d--2----------------
a----1-1-1-1/3/5----
e-------------------


Fill`s 1 -2 - 3:

(1)                              (2)

e-13-13-13-13-13-13-13-13-^---^^-17--17---^-13----
b---------------------------11-----15--15-----11--
g-------------------------------------------------
d-------------------------------------------------
a-------------------------------------------------
e-------------------------------------------------



e-13---^-17--17---^-13--13-13/15-^--13-------
b---11-----15--15-----11--------------15-13--
g--------------------------------------------
d--------------------------------------------
a--------------------------------------------
e--------------------------------------------

(3)
e-----------^-----------^-----------^---------
b---------------------------------------------
g---------------------------------------------
d---------------------------------------------
a--4/5-5-5-----4/5-5-5-----4/5-5-5-----5-5-5--
e---------------------------------------------


Esta me la paso un amigo, creo que tiene cosas interesantes.