intro
1--------------------------------------------------------------
2---------------2-0-2-0-2--------------------------------------
3-1-1/1/1/1/1/1-----------4-------------------------------------
4--------------------------------------------------------------
5--------------------------------------------------------------
6--------------------------------------------------------------

        intro        
si esta carcel sigue asi
                      Si   
todo preso es politico uoooooo
     intro
reos de la sociedad 
                       Si
si tu preso es politico uoooooooo

verso

 Do#m           Si
el ascensor ya sube
Do#m            Si
tu confesion ya sube

medio
Sol   Fa#   Si

Re   La    Si
intro 2
1)-------------------------------------------------------------
2)-------------------------------------------------------------
3)-------------------------------------------------------------
4)----------------------2-4------------------------------------
5)---------2-4--0-0-3-4----------------------------------------
6)-0-0-3-4-----------------------------------------------------

intro 2
Si       Sim7
detenganlos
intro2
Si       Sim7
detenganloooos
Re  La   Si 

intro 2
detenganme 
intro 2
detengalooooos

un saludo para el fan n°1 de los redondos , para vos yamo
dudas? RMT y para vos sol i love you

=================================================
Trancripcion de rodrigo martin tomas
(richy@arnet.com.ar)
=================LAS PISADAS=====================
+-----------------------------------------------+
| Patricio Rey y sus Redonditos de Ricota       |
| TODO PRESO ES POLITICO                        |
| bellinson /solari                             |
| un baion para el ojo idiota (1987)            |
+-----------------------------------------------+
=============DEL ROCK EN ESPA~OL=================

intro
1--------------------------------------------------------------
2---------------2-0-2-0-2--------------------------------------
3-1-1/1/1/1/1/1-----------4-------------------------------------
4--------------------------------------------------------------
5--------------------------------------------------------------
6--------------------------------------------------------------

        intro        
si esta carcel sigue asi
                      Si   
todo preso es politico uoooooo
     intro
reos de la sociedad 
                       Si
si tu preso es politico uoooooooo

verso

 Do#m           Si
el ascensor ya sube
Do#m            Si
tu confesion ya sube

medio
Sol   Fa#   Si

Re   La    Si
intro 2
1)-------------------------------------------------------------
2)-------------------------------------------------------------
3)-------------------------------------------------------------
4)----------------------2-4------------------------------------
5)---------2-4--0-0-3-4----------------------------------------
6)-0-0-3-4-----------------------------------------------------

intro 2
Si       Sim7
detenganlos
intro2
Si       Sim7
detenganloooos
Re  La   Si 

intro 2
detenganme 
intro 2
detengalooooos

un saludo para el fan n°1 de los redondos , para vos yamo
dudas? RMT y para vos sol i love you