Intro:
Guitarra:
   LA   (RIFF 1)
e|-----------------|-------------------|----------------|------------------|
B|-----------------|-------------------|----------------|------------------|
G|-----------------|-------------------|----------------|------------------|
D|-(2)--------(0)--|-(2)~---------(0)--|-(2)--------(0)-|-(2)~-------------|
A|-(0)----0-1------|-(0)~-----0-1------|-(0)----0-1-----|-(0)~-------------|
E|------3----------|------0-3----------|------3---------|-------0-3-0-3-0--|

Guitarra 2                                                Punteo 1
                                                        |------------------|
                                                        |------------------|
                                                        |---10b--10-(9)~---|
                                                        |------------------|
                                                        |------------------|
                                                        |------------------|
BAJO:
G|-----------------|-------------------|-----------------|------------------|
D|-----------------|-------------------|-----------------|------------------|
A|-----------------|-------------------|-----------------|------------------|
E|-5-5-3-0-3-0-3-5-|--5-5-3-0-3-0-3-5--|-5-5-3-0-3-0-3-5-|-5--3--0-3-0-3-0--|

sigue asi....

                      LA (Riff 2)
GUITARRA 1:                                            ACA LA guitarra 2 hace el punteo 1
E|-----------------|-------------------|----------------|-------------------|
B|-----------------|-------------------|----------------|-------------------|
G|-----------------|-------------------|----------------|-------------------|
D|-(2)-------------|-(2)~--------------|-(2)~-----------|-(2)~--------------|
A|-(0)----0-4------|-(0)~-----0-4------|-(0)~---0-4-----|-(0)~--------------|
E|------3------3---|------0-3------3---|------3------3--|-------0-3-0-3-(0)-|

BAJO:
G|-----------------|-------------------|-----------------|------------------|
D|-----------------|-------------------|-----------------|------------------|
A|-----------------|-------------------|-----------------|------------------|
E|-5-5-3-0-3-0-3-5-|--5-5-3-0-3-0-3-5--|-5-5-3-0-3-0-3-5-|-5--3--0-3-0-3-0--|


VERSO 1:

BAJO:  LA                                                          enganche con estribillo
G|---------------------------------------------------------------|--------|
D|---------------------------------------------------------------|--------|
A|-0-0-0-0-0-0-0-0-0-0-0-0-0-0-0-0-0-0-0-0-0-0-0-0-0-0-0-0-0-0-0-|--------|
E|---------------------------------------------------------------|-0-3-0--|

*la guitarra 1 tambien hace el enganche..


La
"Un galpon de luz, es el templo del momo
                                 Punteo 1
pura flor chillona y pura ambriaguez
La
Santo fumador, de alla de La Plata
Sali del letargo veni a desfilar"


ESTRIBILLO 1: 

RIFF 1
"Ademas, de tu sonrisa
ademas, de tus dolores
RIff 2
vas a copiar del templo del Momo,
Un amor salvaje y al pulso del trip."


VERSO 2: (LA)

La
Tambien hay pastel de ponsoña salada
                            Punteo 1
Licor y baladas para embaucar...
La
aquel rubio que se tragaba cien lucas
hace lo que puede para vivir


Guitarra 1: (la)
e|-----------|------------|---------------|-------|--|------------|
B|-----------|------------|---------------|-------|--|------------|
G|-----------|--------#---|---------------|-------|X2|------------|
D|-(2)----2--|--2---------|-----2-----2---|--2-2--|--|------------|
A|-(0)----0--|--0---------|-----0-----0---|--0-0--|--|------------|
E|-----3-----|-----3------|-0-3----3------|-------|--|--0--3--0---|

BAJO: LA
G|-------|-------|------|------|--|-------|
D|-------|-------|------|------|X2|-------|
A|-0-0-0-|-0-0-0-|0-0-0-|0-0-0-|--|-------|
E|-------|-------|------|------|--|0-3-0--|


ESTRIBILLO 2 : (Igual)

  RIFF 1
"Ademas, de tu sonrisa, 
ademas, si!... de como mentir
  RIFF 2
vas a copiar desde Momo-Sampler
viejas medicinas para soñar..."


SOLO DE GUITARRA:

BAJO:
G|---------------------------|--|-----------|
D|---------------------------|X3|-----------|
A|---------------------------|--|-----------|
E|-0--2--2-2---0--2-5--2--2--|--|--0--3--0--|

                                                                   _____________X2____________ 
GUITARRA 1: (Base del solo)                                       |                          |  
e|------------------------------|--------------------------------|-----------------------------|
B|------------------------------|--------------------------------|---------------#-------------|
G|----------------#-------------|----------------#---------7b-(6)|-----------------------------|
D|------2--4---7----4--xxxxxxx--|------2--4---7----4--xxxx-------|------2--4---7----4--xxxxxxx-|
A|------2--4---7----4--xxxxxxx--|------2--4---7----4--xxxx-------|------2--4---7----4--xxxxxxx-|
E|-0h2--0--2---5----2-----------|-0h2--0--2---5----2-------------|-0h2--0--2---5----2----------|


GUITARRA 2 (SOLO)

e|--------------------------------------|---------------------------------|----------------------
B|--5h7--7-7-7---------(7)--------------|-7-7-7---------(7)-----9-(7)-(7)-|---7-7---7-(7)~--7-(7)
G|-------6-6-6--5-5-5--(6)--6-7-6-------|-6-6-6--5-5-5--(6)--6--9-(7)-(6)-|-6-----6----------6---
D|--------------------------------7-9---|---------------------------------|----------------------
A|------------------------------------7-|---------------------------------|----------------------
E|--------------------------------------|---------------------------------|----------------------

e|-----------------|-------------------------------|-----------|
B|~~--------(10)---|--7--(7)~----------------------|-----------|
G|------6/9------9-|--6-------5/6------------------|-----------|
D|-----------------|--------------7/9------7-------|-----------|
A|-----------------|------------------7/9----(9)~--|-----------|
E|-----------------|-------------------------------|--0--3--0--|


ESTRIBILLO 3:

RIFF 1
"Ademas, de tu sonrisa
ademas, de tus dolores
RIFF 2
vas a copiar del templo del Momo,
Un amor salvaje y al pulso del trip."


GUITARRA 2 : (hace esto)
                                                Punteo 1
e|-----------|---------------------|----------|-------------------|
B|-10-(10)~--|---------------------|-10-(10)~-|-------------------|
G|-----------|--7-6--4-------------|----------|----10b--10-(9)~---|
D|-----------|---------5-7---------|----------|-------------------|
A|-----------|-------------5-7-----|----------|-------------------|
E|-----------|-----------------(5)-|----------|-------------------|


VERSO 4: (base igual)

La
Vienen tambaleando, gallos sofocados
y la "quetejedi" prepara el festín.
Le dan a la F100 a toda mostaza
(a veces funciona, otra veces no)

GUITARRA 2:
e|-------------------------|--|---------------------------|
B|-------------------------|--|---------------------------|
G|-7-7p6-----7-6-----------|X3|-7-7p6-----7-6-------------|
D|-------7-5-----7-5---7-5-|--|-------7-5-----7-5---5-----|
A|-------------------7-----|--|-------------------7---7---|
E|-------------------------|--|---------------------------|


ESTRIBILLO 4:

RIFF 1
Ademas, de tu sonrisa, 
ademas, si!... de como mentir
RIFF 2
vas a copiar desde Momo-Sampler
viejas medicinas para soñar...


GUITARRA 2 : (hace esto)
                                                Punteo 1
e|-----------|---------------------|----------|-------------------|
B|-10-(10)~--|---------------------|-10-(10)~-|-------------------|
G|-----------|--7-6--4-------------|----------|----10b--10-(9)~---|
D|-----------|---------5-7---------|----------|-------------------|
A|-----------|-------------5-7-----|----------|-------------------|
E|-----------|-----------------(5)-|----------|-------------------|


FINAL:
                      LA (Riff 2)
GUITARRA 1:                                           
E|-----------------|-------------------|----------------|-------------------|
B|-----------------|-------------------|----------------|-------------------|
G|-----------------|-------------------|----------------|-------------------|
D|-(2)-------------|-(2)~--------------|-(2)~-----------|-(2)~--------------|X2
A|-(0)----0-4------|-(0)~-----0-4------|-(0)~---0-4-----|-(0)~--------------|
E|------3------3---|------0-3------3---|------3------3--|-------0-3-0-3-(0)-|

GUITARRA 2:

e|-------------------------|--|---------------------------|
B|-------------------------|--|---------------------------|
G|-7-7p6-----7-6-----------|X3|-7-7p6-----7-6-------------|
D|-------7-5-----7-5---7-5-|--|-------7-5-----7-5---5-----|
A|-------------------7-----|--|-------------------7---7---|
E|-------------------------|--|---------------------------|

BAJO:
G|-----------------|-------------------|-----------------|------------------|
D|-----------------|-------------------|-----------------|------------------|
A|-----------------|-------------------|-----------------|------------------|X2
E|-5-5-3-0-3-0-3-5-|--5-5-3-0-3-0-3-5--|-5-5-3-0-3-0-3-5-|-5--3--0-3-0-3-0--|

GUITARRA 3: (arreglo)

                                                Punteo 1
e|-----------|---------------------|----------|-------------------|
B|-10-(10)~--|---------------------|-10-(10)~-|-------------------|
G|-----------|--7-6--4-------------|----------|----10b--10-(9)~---|X2
D|-----------|---------5-7---------|----------|-------------------|
A|-----------|-------------5-7-----|----------|-------------------|
E|-----------|-----------------(5)-|----------|-------------------|


final.