todo el tema:

guitarra (con un poco de delay)

e|-14-15----------------------------------------|-------------|---------------|
B|-------14-15-------12/14--14-------12/14--14--|-15-14-------|15-------------|
G|-------------11-12-----------11-12------------|--------(12)-|----12--(11)---| X4
D|----------------------------------------------|-------------|---------------|
A|----------------------------------------------|-------------|---------------|
E|----------------------------------------------|-------------|---------------|

y final.

e|-14-15----------------------------------------|-------------|-----------|
B|-------14-15-------12/14--14-------12/14--14--|-15-14-------|-----------|
G|-------------11-12-----------11-12------------|--------(12)-|----(11)---|
D|----------------------------------------------|-------------|-----------|
A|----------------------------------------------|-------------|-----------|
E|----------------------------------------------|-------------|-----------|