ACORDES:> Am E7

MODIFICACION A LA TRANSCRIPCION DE:
Maximiliano Pablo Birarelli (chaca@einstein.com.ar)
**********************************************************************

intro

Guitarra:

E|-----------3-------------0|--|---------------------------|
B|---------3---------------1|--|---------------------------|
G|-------2-----------------2|--|---------------------------|
D|-0-2-3-------3-2---------2|X3|-0--3--(5)-->dejar--sonando|
A|-----------------3-2--0--0|--|---------------------------|
E|--------------------------|--|---------------------------|



riff:
           F6(9)*                      Am
E|-------------------------3-----|---0--|
B|--------------------3-------3--|---1--|
G|-0----------------2----2------2|---2--|
D|----3--2--0--2--3--------------|---2--|
A|-------------------------------|---0--|
E|-------------------------------|------|

VERSO 1:

riff 1
      Saliste ya mil veces
riff 1
      de la pista a respirar
riff 1
      a reclutar, bien maquillado
riff 1
      y ocultando tu lunar.


Am              Am/G
      Un dia el bote volco
                    Am /F#
      y el premio a pique se fue
                Fmaj7(Am/F)
      todos te daban por muerto
     Am                   Am/G
      y vos alli en tu remolque
                       Fmaj7(Am/F)...Corta
      sin luz, como un polizon.



Guitarra:  Am       Am/G          Am /F#        Fmaj7(Am/F)


E|-------0-----0|-------0-----0|------0-----0|-------0-------0|
B|---------1----|---------1----|--------1----|----------1-----|
G|----2------2--|----2------2--|----2-----2--|-----2-------2--|
D|--2-----------|--2-----------|--0----------|---0------------|X1
A|0-------------|--------------|-------------|----------------|
E|--------------|3-------------|2------------|1---------------|


VERSO 2: (igual al 1)

riff 1
      Mira que tipo espeso
riff 1
      sumiso como un guiso mas
riff 1
      un vago de mil caravanas
riff 1
      a punto de quedar a pie .


Am               Am/G
      Fundiendo plomo logras
                 Am /F#
      chorros de oro cochino
               Fmaj7(Am/F)
      en besos de lo mas desnudos
      Am                  Am/G
      pero el cafe con tu suerte
                      Fmaj7(Am/F)
      se enfria en mi mesa fria




Puente E7

Guitarra:
     Mi7
E|----------4---------|||
B|------3--------3----|||
G|----4---4----4---4--|||  X 8
D|--2-----------------|||
A|--------------------|||
E|--------------------|||



SOLO DE GUITARRA:


 GUITARRA: (solo).

E|-0---------------------------------------5----8-5-----------|
B|-1-------------------------------------5---8b-----8/10------|
G|-2------------------7br-p5-7b-7b(100%)-----------------12/14|
D|-2-----------5-5h7------------------------------------------|
A|-0----------------------------------------------------------|
E|---3~/12-2--------------------------------------------------|


E|--------15----15---------------------------|
B|-13-15b----15b---15br-p13--15b-13--------0-|
G|---------------------------------14--(14)--|
D|-------------------------------------------|
A|-------------------------------------------|
E|-------------------------------------------|



E|--------------------------------------------|----------------|
B|--------------------------------------------|----------------|
G|----------12-------------------------5------|7br-h5---------5|
D|-12-12h14-----12-12h10----12~----------7p5--|-------7-7-5-7--|X3
A|-----------------------12--------5/7--------|----------------|
E|-------------------------------5------------|----------------|

E|-----5---------------------|-----15-----15|
B|---5--------------------13-|-15b----15b---|
G|--------12/14-12--12/14----|--------------|
D|-------------------------|----------------|X7
A|---------------------------|--------------|
E|---------------------------|--------------|


E|-----------------------------------------------|
B|-15br-p13-15p13---------------13--15--13--15b--|
G|-----------------14--(14)--14------------------|
D|-----------------------------------------------|
A|-----------------------------------------------|
E|-----------------------------------------------|


ESTRIBILLO

Am         Am/G
      Apuntamos a tu nariz
         Am /F#
      undimos tus pomulos
        Fmaj7(Am/F)
      y vos resplandecias
      Am                        Am/G
      no te quedo sueño por vengar
                                     Fmaj7(Am/F)
      y ya no esperas que te jueguen limpio
              (corta)
      nunca mas


VERSO 3 (Igual a los otros versos)

riff 1
      Salando las heridas
riff 1
      jodiste a todo cristo y mas...
riff 1
      a boluditos de la luna
riff 1
      y tipas porno-nazi look



ESTRIBILLO 1  (Igual)

Am              Am/G
      Un dia el bote volco
                    Am /F#
      y el premio a pique se fue
                Fmaj7(Am/F)
      todos te daban por muerto
     Am                   Am/G
      y vos alli en tu remolque
                       Fmaj7(Am/F)...Corta
      sin luz, como un polizon.


Arreglo 1:
E|------------------------------|
B|------------------------------|
G|--------7br--7b-(5)~----------|
D|-7-5--7-----------------------|
A|------------------------------|
E|------------------------------|

Arreglo 2:
E|--------------------------------|
B|-8b(100%)8br--------------------|
G|-------------7b(50%)--7b(100%)--|
D|--------------------7-----------|
A|--------------------------------|
E|--------------------------------|

Arreglo 3:
E|-----------------------------------|
B|-----------------------------------|
G|--5h7--5h7---5---------------------|
D|-----------7---7--5----------------|
A|--------------------7--------------|
E|----------------------8b(100%)--5--|




riff 1                         Arreglo 1
      Tu lengua se derrite
riff 1                            Arreglo 2
      en modas de la rabia de hoy
riff 1                                 Arreglo 3
      cuando enfermas con tanta gana
riff 1
      cerras las filas del dolor



Am               Am/G
      Fundiendo plomo logras
                 Am /F#
      chorros de oro cochino
               Fmaj7(Am/F)
      en besos de lo mas desnudos
      Am                  Am/G
      pero el cafe con tu suerte
                      Fmaj7(Am/F)
      se enfria en mi mesa fria



Puente E7

Guitarra:
     Mi7
E|----------4---------|||
B|------3--------3----|||
G|----4---4----4---4--|||  X 8
D|--2-----------------|||
A|--------------------|||
E|--------------------|||

 "SEGUNDO SOLO DE GUITARRA":

E|-----------5--------------8------------------------------
B|---------5---5--8b(100%)----8b---------------------------
G|-7b(100%)-----------------------5--------5-----7br-p5-7b-
D|----------------------------------7---------7------------
A|-------------------------------------5h7-----------------
E|---------------------------------------------------------


E|--------------------------------------------5------8-----
B|---------------------------------------------8/10----10--
G|------------------------------------5---5--7b------------
D|-----------------------------5-5h7----7------------------
A|5-------5b(50%)-5---------7------------------------------
E|---8--5-----------8-5-8-5--------------------------------


E|-------------15---15---------------------
B|------13-15b---15b---15br-p13--15p13-----
G|-12/14--------------------------------14-
D|-----------------------------------------
A|-----------------------------------------
E|-----------------------------------------



E|--------------------------------------------------------------
B|15p13----13---------------------------------------------------
G|------14----14p12----12---------------------------------------
D|------------------14---14p12-12/10---10-12b--12b-12p10----10--
A|----------------------------------12-------------------12----12
E|---------------------------------------------------------------


E|-------------------------------------
B|-----------------------------------5-
G|---5-5-5-5-5----7b-5---5----7br-p5---
D|---7-7-7-7--7-------7---7------------
A|-------------------------------------
E|-------------------------------------


E|------------------8-------8---15b----
B|----------------5---8/10---10-----13-
G|---5--7br-p5-7b----------------------
D|-7-----------------------------------
A|-------------------------------------
E|-------------------------------------


E|----------------------------------(15b)--|
B|---------------13-15br-p13-15p13---------|
G|-14--14--12/14---------------------------|
D|-----------------------------------------|
A|-----------------------------------------|
E|-----------------------------------------|





Am         Am/G
      Apuntamos a tu nariz
         Am /F#
      undimos tus pomulos
        Fmaj7(Am/F)
      y vos resplandecias
      Am                        Am/G
      no te quedo sueño por vengar
                                     Fmaj7(Am/F)
      y ya no esperas que te jueguen limpio
              (Final)
      nunca mas

Fmaj7(Am/F) (final)

E|-------------0-----|
B|----------0--------|
G|--------2----------|
D|-----0-------------|
A|-------------------|
E|---1---------------|

F6(9)*

E|3------------------|
B|3------------------|
G|2------------------|
D|3------------------|
A|-------------------|
E|-------------------|


TABLATURA:
---------

p o ^: ligado descendente
h o ^: ligado ascendente
()   : dejar nota sonando
b    : estirar
/    : deslizar
br   : estirar la nota y volver a la misma que a sido estirada ant.
PM   : Palm mute (tapar las cuerdas con la mano derecha)
~    : Vibrato