Intro: Am Bm

Riff
e--10-8--------------------
B-------10-8---------------
G--------------------------
D--------------------------
A----------------------3-0-
E--------------0-0-3-0-----

Lam        Sol        Lam                  Sol
A Roxana Porchelana, en el panel de vídeo,
Am              G               A    (Riff)
la ratoncita divina del Dr. Jeckill,

Lam                    Sol
Siempre jugando con fuego
Lam                 Sol
incendió Palermo Chico,
Lam                Sol                       Lam
horrorizada en bikini en una gran congestión.

 
Sim                      Lam
Dicen que el crimen no paga
Sim               Lam
ese empalagoso show,
Sim               Lam
Esos retazos gratuitos,
                  Sol                   Lam
que el crimen no paga el hipnótico panel. (bis)

 (Solo)


Roxi quedó radioactiva,
en un riesgoso interview,
mientras buscaba inocente,
el monstruo la chuponeó.

Mira que linda y cremosa,
su faraónico ser,
no baila ya -pobrecita- el limbo sobrevivir.

Dicen que el crimen no paga
ese empalagoso show,
Esos retazos gratuitos,
que el crimen no paga el hipnótico panel.

-----------------------------------------------
Como verán no está perfectamente bien sacada, pero así suena bastante
bien y nadie la había mandado.

Acordes:

   Lam  Sol   Sim
e--5---3---7--
B--5---3---7--
G--5---4---7--
D--7---5---9--
A--7---5---9--
E--5---3---7--

Saludos,
Angel (Mendoza-Argentina)
Aguanten los Redondos!