Intro: Intro+Riff1+Base

Con Base

 Quemás tu vida en este día,
en esta tibia, tibia fila.
 Quemás, Quemás, Quemás...
Quemás, Quemás, Quemás... tu vida.

  ¿Comó te vá en estos dias?
 Humano roto y mal parado.
 Quemás, Quemás, Quemás... 
Quemás, Quemás, Quemás... tu vida.

   Mi   Si     La
 ¡Fuego, fuego!  
   Mi   Si     La
 ¡Fuego, fuego!
   Mi   Si     La    Si La# Si
 ¡Fuego, fuego! mentiras.

 Tu loca voluntad humeando,
graznando fiero y sin estilo.
 Quemás, Quemás, Quemás... 
Quemás, Quemás, Quemás... tu vida.

   Mi   Si     La
 ¡Fuego, fuego!  
   Mi   Si     La
 ¡Fuego, fuego!
   Mi   Si     La    Si La# Si
 ¡Fuego, fuego! mentiras.

 Le tangó! Solo de Saxo

   Mi   Si     La
 ¡Fuego, fuego!  
   Mi   Si     La
 ¡Fuego, fuego!
   Mi   Si     La    Si La# Si
 ¡Fuego, fuego! mentiras... Mentiras... Mentiras... Mentiras.. 

   Mentiras..



  Intro
E---------------------------------------------------------|
B---------------------------------------------------------|
G-----------------------------------------------4-4--3-4--|
D-14-14-13-13-12-12-11-11-10-10-9-9-8-8-7-7-6-6-3-3--2-3--|
A-12-12-11-11-10-10--9--9--8--8-7-7-6-6-5-5-4-4-----------|
E---------------------------------------------------------|
   Riff1                                 
E-----------------------|   
B-----------------------|     
G--------------4-4--3-4-|     
D--------------3-3--2-3-| X 4 
A--------2-3-4----------|    
E-0-2-3-----------------|     

   Base
E------------------------|
B------------------------|
G-----------------4--3-4-|
D-----------------3--2-3-|
A---------2---2-4--------|
E-0-2-3-4---4------------|


lopus_el_lobo@yahoo.com.ar