Introducion:
                                          
e----------/-----------/----------------/-----------/
b----------/-----------/----------------/-----------/
g----------/---------9-/-------------12-/---------7-/
d------9-8-/-----9-8---/-------12-11----/-----9-8---/
a----7-----/---7-------/-10-10----------/---7-------/
E--0-------/-0---------/----------------/-0---------/
 2 veses   / 4 veses   / 4 veses        / 4 veses   /

e----------------------------10----------------------/
b---------------8-10~11~10-8----8--------------------/
g-------------9---------------------------7---------7/
d--7--7-7-7----------------------------9-8------9-8--/
a--7--7-7-7--------------------------7--------7------/ 
E--5--5-5-5------------------------0--------0--------/
Todo esto se repite dos veses


e--------------/
b--------------/
g--------------/
d---5-5-5-3-2--/
a---5-5-5-3-2--/
E---3-3-3-1-0--/
 una sola vez

 E5       G5      E5     G5 
-Dame... dame tu vida.
 E5       G5        E5      G5 
 Dame y tendras mi piedad.
 E5                      G5      E5    G5  
 dame la sed de tus ojos acorazados
 E5             G5        E5     G5
 y dame tu insolencia tambien.

 D5                           E5             
-Rara vez esta vida tiene sentido, amor
              D5      
 y asi ves que hasta mi sombra brilla
             E5  G5 F5 E5
 en esta ciudad.


-Caen, caen al fin, caen los disfrases
 caen desnudandote
 mientras unos fantasmas, fieles amigos
 rien de vos y se roban tu fe.

-Vas copiando tu herida sobre un paniuelo rojo
 y ya sabes que jugando al borrego te van a carnear

Intermedio:
e-----------/-----------/-----------------------10---
b-----------/-----------/----------8-10~11~10-8----8-
g-----------/---------9-/--------9-------------------
d---------5-/-----9-8---/-7-7-7----------------------
a-----5-4---/---7-------/-7-7-7----------------------
E-3-3-------/-0---------/-5-5-5----------------------
 4 veses      4 veses        Se repite.........
e---------------------/
b---------------------/
g---------9---------9-/
d-----9-8-------9-8---/
a---7---------7-------/
E-0---------0---------/
.......dos veses.

-Risas en el taller del diablo
 trampas para tu soniar
 no vas a ser esclava del paraiso
 vas a bailar en un rock yugular.

-Te vez en el pequenio espejo del mundo hoy
 y no queres que la lima del tiempo lo muerda otra vez

-Dame... dame tu vida
 dame y tendras mi piedad 
 dame la sed de tus ojos acorazados
 y dame, mi amor, tu insolencia tambien.

-Rara vez esta vida tiene sentido, amor
 y asi vez que hasta mi sombra brilla
 en esta ciudad.

Repite intermedio y finaliza asi:

e------------/----------/-----------/
b------------/----------/-----------/
g------------/--5-5-5-5-/---------9-/
d----------5-/--5-5-5-5-/-----9-8---/
a------5-4---/--3-3-3-3-/---7-------/
E--3-3-------/----------/-0---------/
 4  veses                 4 veses

Espero les guste. Cualquier consulta manden un e-mail
AGUANTE CHACA Y EL REY DEL PATY.