INTRO:
GUITARRA:

e|--7----7-7-------5----------------|--|--7----7-7-------5---------------|
B|-----7-7-7----5--5----5---3-4-----|--|-----7-7-7----5--5----5--3-4-(5)-|
G|----------------------4-------(4)-|X3|----------------------4----------|
D|----------------------------------|--|---------------------------------|
A|----------------------------------|--|---------------------------------|
E|----------------------------------|--|---------------------------------|

BAJO:
G|---------------------------------|--|--------------------------------|
D|---------------------------------|X3|--------------------------------|
A|-------------------------5-6-----|--|------------------------5-6-(7)-|
E|--------------5--5---0-------(7)-|--|---7--7-7-7---5-5----0----------|

sigue asi...

Guitarra:        
      MI5              Si                  FA #                 MI
e|-----------------|--------------|--|--14-14b--14-12----14/-|--12-12b--12-10-----12/-|   Si
B|-----------------|--------------|--|----------------14-----|-----------------12-----|
G|----(9)-----(9)--|--------------|X2|-----------------------|------------------------|
D|----(9)-----(9)--|---(9)---(9)--|--|-----------------------|------------------------|
A|----(7)-----(7)--|---(9)---(9)--|--|-----------------------|------------------------|
E|-----------------|---(7)---(7)--|--|-----------------------|------------------------|

SAXO:
       Mi                     Si                            Mi                     Si
e|---------------------|--|---------------------|--|-------------------|--|------------------|--|
B|---------------------|--|---------------------|--|-------------------|--|------------------|--|
G|-----------4-6-(7)-/-|X2|---------------------|X2|----------4-6-(7)-/|X2|------------------|X2|
D|---6-7-8-9-----------|--|-----------4-6-(7)-/-|--|--6-7-8-9----------|--|--------4-6-(7)-/-|--|
A|---------------------|--|---6-7-8-9-----------|--|-------------------|--|6-7-8-9-----------|--|
E|---------------------|--|---------------------|--|-------------------|--|------------------|--|

BAJO:      MI                    MI*                          SI
G|---------------------------|--------------------------|----------------------------|----------|
D|---------------------------|-------------------6-6-7-8|----------------------------|----------|
A|-7-7-7-7-7-7-7-7-7--4-4-5-5|-7-7-7-7-7-7-7-7-7--------|----------------------------|----------|
E|---------------------------|--------------------------|-7-7-7-7-7-7-7-7-7--4-4-5-5-|-7-7-7-7-7|
   Si*                                                 FA#             MI            SI
G|-------------------|------|----|------|------|------------------|-----------------|-------|
D|-------------------|---MI-|-MI*|--SI--|--SI*-|------------------|-----------------|----%--|
A|-----------4-4-5-5-|------|----|------|------|------------------|-----------------|-------|
E|-7-7-7-7-7---------|------|----|------|------|--2-2-2-2-2-2-2-2-|-0-0-0-0-0-0-0-0-|--7----|


PUENTE:

GUITARRA:
e|--7----7-7-------5----------------|--7----7-7-------5---------------|
B|-----7-7-7----5--5----5---3-4-----|-----7-7-7----5--5----5--3-4-(5)-|
G|----------------------4-------(4)-|----------------------4----------|
D|----------------------------------|---------------------------------|
A|----------------------------------|---------------------------------|
E|----------------------------------|---------------------------------|

BAJO:
G|---------------------------------|--------------------------------|
D|---------------------------------|--------------------------------|
A|-------------------------5-6-----|------------------------5-6-(7)-|
E|--------------5--5---0-------(7)-|---7--7-7-7---5-5----0----------|


VERSO 1:
 MI                           fill1
Negro, esto es mucho más lindo
                            Puente
después de la clandestinidad.


GUITARRA
   Fill 1
e|-------------|---12/------|
B|----5--------|---12/------|
G|----4---(9)--|------------|
D|--------(9)--|------------|
A|--------(7)--|------------|
E|-------------|------------|

BAJO: (MI)
G|-----------------------------------------|
D|-----------------------------------------|
A|--7-7-7-7-7-7-7-7--7-7-7-7-7-7-7-7-7-7---|
E|-----------------------------------------|


REPITE PUENTE:

GUITARRA:
e|--7----7-7-------5----------------|--7----7-7-------5---------------|
B|-----7-7-7----5--5----5---3-4-----|-----7-7-7----5--5----5--3-4-(5)-|
G|----------------------4-------(4)-|----------------------4----------|
D|----------------------------------|---------------------------------|
A|----------------------------------|---------------------------------|
E|----------------------------------|---------------------------------|

BAJO:
G|---------------------------------|--------------------------------|
D|---------------------------------|--------------------------------|
A|-------------------------5-6-----|------------------------5-6-(7)-|
E|--------------5--5---0-------(7)-|---7--7-7-7---5-5----0----------|


VERSO 2: (igual)
       
MI                          Fill 1
Los ojitos tristes te sientan       
                                       Puente 2
y un buen par de tarros te vas a comprar.



PUENTE 2 (pre estribillo)

GUITARRA : (cambia riff)
       
e|--7----7-7-------5----------------|--7----7-7-------5---------------|
B|-----7-7-7----5--5----5---3-4-----|-----7-7-7----5--5----5--5-6-(7)-|
G|----------------------4-------(4)-|----------------------4----------|
D|----------------------------------|---------------------------------|
A|----------------------------------|---------------------------------|
E|----------------------------------|---------------------------------|

BAJO: (entra desde aca)
G|---------------------------------|--------------------------------|
D|---------------------------------|--------------------------------|
A|--------------------------5-6----|------------------------7-8-(9)-|
E|----------------5-5---0------(7)-|---7--7-7-7---5-5----0----------|


ESTRIBILLO 1:

Fa#
Cuando te de den tu astillita
Mi
vas a putear y putear
Fa#
con tanto tiempo inactivo
    MI                                PUENTE
el ñamfi se te enfrió y sos un punto más.


GUITARRA:
e|----------|-------|
B|----------|-------|
G|----FA#---|---MI--|X2
D|----------|-------|
A|----------|-------|
E|----------|-------|

BAJO    FA #            MI                FA#                MI
G|------------------|-----------------|------------------|-----------------|-----|-------|
D|------------------|-----------------|------------------|-----------------|-#---|----#--|
A|------------------|-----------------|------------------|-----------------|-----|-------|
E|--2-2-2-2-2-2-2-2-|-0-0-0-0-0-0-0-0-|--2-2-2-2-2-2-2-2-|-0-0-0-0-0-0-0-0-|-----|-7-----|


****REPITE PUENTE 1*****


VERSO 3 (igual)

Desde que fumás malvaloca
ni te acordás que fuiste un chabón,



****REPITE PUENTE 1*****



VERSO 4 (igual)

al que mandó una pupila
acomodada en un celular.


****REPITE PUENTE 2*****


ESTRIBILLO 2: (igual)

Y va coreando la pobre,
dele carajo y putear,
te mando a cafúa gritando.
el súper-gordo-súper de Navidad.


****REPITE PUENTE 1*****




SOLO DE GUITARRA:

      Mi                     Si                            Mi                     Si
e|---------------------|--|---------------------|--|-------------------|--|------------------|--|
B|---------------------|--|---------------------|--|-------------------|--|------------------|--|
G|-----------4-6-(7)-/-|X2|---------------------|X2|----------4-6-(7)-/|X2|------------------|X2|
D|---6-7-8-9-----------|--|-----------4-6-(7)-/-|--|--6-7-8-9----------|--|--------4-6-(7)-/-|--|
A|---------------------|--|---6-7-8-9-----------|--|-------------------|--|6-7-8-9-----------|--|
E|---------------------|--|---------------------|--|-------------------|--|------------------|--|
  
                      
e|-------------------|-------------------------------------|-------(18b)-17~|-15-13b-|----------|
B|---9b--9b--9-(7)---|---------------------10--------------|-----16---------|--------|----------|
G|-------------------|------10-----10---12b----12br-10-(12)|-/17------------|--------|----------|
D|-------------------|-10h12----12-------------------------|----------------|--------|----------|
A|-------------------|-------------------------------------|----------------|--------|----------|
E|-------------------|-------------------------------------|----------------|--------|----------|

e|-------12----------------------------|
B|-9h10-------9h10------------9~~-/----|
G|-----------------9---11h12-----------|
D|-------------------------------------|
A|-------------------------------------|
E|-------------------------------------|

BAJO:      MI                    MI*                          SI
G|---------------------------|--------------------------|----------------------------|----------|
D|---------------------------|-------------------6-6-7-8|----------------------------|----------|
A|-7-7-7-7-7-7-7-7-7--4-4-5-5|-7-7-7-7-7-7-7-7-7--------|----------------------------|----------|
E|---------------------------|--------------------------|-7-7-7-7-7-7-7-7-7--4-4-5-5-|-7-7-7-7-7|
   Si*                                                 FA#             MI            
G|-------------------|------|----|------|------|------------------|-----------------|-------|
D|-------------------|---MI-|-MI*|--SI--|--SI*-|------------------|-----------------|--FA#--|
A|-----------4-4-5-5-|------|----|------|------|------------------|-----------------|-------|
E|-7-7-7-7-7---------|------|----|------|------|--2-2-2-2-2-2-2-2-|-0-0-0-0-0-0-0-0-|-------|
    Mi                     Si
G|-----------------|-----|-------|
D|-----------------|-#---|-------|
A|-----------------|-----|-------|
E|-0-0-0-0-0-0-0-0-|-----|-7-----|



***********************************

REPITE PUENTE 1

REPITE VERSO 1

PUENTE  1

REPITE VERSO 1

PUENTE 2

REPITE  ESTRIBILLO 1

REPITE PUENTE 1


REPITE VERSO 3 (igual)

REPITE PUENTE 1


REPITE VERSO 4 (igual)

REPITE PUENTE 2


 REPITE ESTRIBILLO 2: (igual)


****REPITE PUENTE 1*****

 y final.

GUITARRA  y saxo:
       Mi                     Si                            Mi                     Si
e|---------------------|--|---------------------|--|-------------------|--|------------------|--|
B|---------------------|--|---------------------|--|-------------------|--|------------------|--|
G|-----------4-6-(7)-/-|X2|---------------------|X2|----------4-6-(7)-/|X2|------------------|X2|
D|---6-7-8-9-----------|--|-----------4-6-(7)-/-|--|--6-7-8-9----------|--|--------4-6-(7)-/-|--|
A|---------------------|--|---6-7-8-9-----------|--|-------------------|--|6-7-8-9-----------|--|
E|---------------------|--|---------------------|--|-------------------|--|------------------|--|
  
e|--14-14b--14-12----14/-|--12-12b--12-10-----12/-|--7----7-7-------5----------------|
B|----------------14-----|-----------------12-----|-----7-7-7----5--5----5---3-4-----|
G|-----------------------|------------------------|----------------------4-------(4)-| fin
D|-----------------------|------------------------|----------------------------------|
A|-----------------------|------------------------|----------------------------------|
E|-----------------------|------------------------|----------------------------------|


BAJO:      MI                    MI*                          SI
G|---------------------------|--------------------------|----------------------------|----------|
D|---------------------------|-------------------6-6-7-8|----------------------------|----------|
A|-7-7-7-7-7-7-7-7-7--4-4-5-5|-7-7-7-7-7-7-7-7-7--------|----------------------------|----------|
E|---------------------------|--------------------------|-7-7-7-7-7-7-7-7-7--4-4-5-5-|-7-7-7-7-7|
   Si*                                                 FA#             MI            SI
G|-------------------|------|----|------|------|------------------|-----------------|-------|
D|-------------------|---MI-|-MI*|--SI--|--SI*-|------------------|-----------------|----%--|
A|-----------4-4-5-5-|------|----|------|------|------------------|-----------------|-------|
E|-7-7-7-7-7---------|------|----|------|------|--2-2-2-2-2-2-2-2-|-0-0-0-0-0-0-0-0-|--7----|

G|---------------------------------|
D|---------------------------------|
A|-------------------------5-6-----|fin
E|--------------5--5---0-------(7)-|

fin.....