Este es el primer tema q’ saco de oído,
así q’ perdón si hay algún error,
la versión q’ tengo se escucha mal
además lo saqué con criolla pero suena bastante bien



Intro:  Re# - Do#

Tema: con Rem (el rasguido es ab-ar-ab--ar-ab)x4 en cada verso

la 2ª guitarra se puede tocar con Sim y usar Lam en la parte del riff

[Tocar todo con cejillas]

                                        riff 1
Lo que desenfrena, eso es el Rock’n roll
                                           riff 1
lo que te agita nena, eso es el Rock’n roll
                                        riff 2
eso que te sacude, eso es el Rock’n roll

                                          riff 1
Eso que ves en vena, eso es el Rock’n roll
                                           riff3
lo que te agita nena, eso es el Rock’n roll

eso que te sacude, eso es el Rock’n roll


                                          riff 4
Es lo q’ desenfrena, eso es el Rock’n roll
                                         riff 5
es lo q’ te sacude, eso es el Rock’n roll
                                          riff 6
lo q’ te agita nena, eso es el Rock’n roll


Solo  acordes: Rem – Solm – Sol – Do – Solm


                                         riff 1
Es lo q’ desenfrena, eso es el Rock’n roll
                                          riff 1
lo q’ te agita nena, eso es el Rock’n roll
                                  Rem (una vez ab)
eso q’ te sacude, eso es el Rock’n
                Rem (una vez ab)
eso es el Rock’n
                      Mim (una vez ab)
eso es el Rock’n roll.



Riff 1:

e -------------------------|
B -6-7-6-7-6-7-3--4-5-4----|
G ----------------------7v-|
D -------------------------|
A -------------------------|
E –------------------------|

Riff 2:

e -----------------------------|
B -6-7-6-7-6-7-3--4-5-4--------|
G ----------------------6-6-7v-|
D -----------------------------|
A -----------------------------|
E -----------------------------|

Riff 3:

e ------------------|
B -7-7-------4-5----|
G -----5-6-5-----7v-|
D ------------------|
A ------------------|
E ------------------|

Riff 4:

e -5-5---------------|
B -----7-6-7---------|
G -----------7h6h5-4-|
D -------------------|
A -------------------|
E -------------------|

Riff 5:

e ---------------------|
B ---------5h6/4-3-2---|
G -6h75-4-----------6-|
D ---------------------|
A ---------------------|
E ---------------------|

Riff 6:

e --------------|
B ---------4----|
G -5-6-5-4---6v-|
D --------------|
A --------------|
E --------------|


Espero haber sido lo suficiente claro.
Para sugerencias, puteadas o ayudas escribir a diegoredondo_10@hotmail.com

Aguante los redondos, Skay, el Indio, Dawi, etc.

Se lo dedico al negro q’ no me tiene fe.