intro:
GUITARRA 1:
  La                                  Si
E|---------------------------------|-----------------------------------|--|----|
B|---------------------------------|-----------------------------------|--|----|
G|---------------------------------|-----------------------------------|X2|----|
D|---------------------------------|-----------------------------------|--|----|
A|--7--7----7---7---7--7---7---7---|---9--9----9---9---9--9---9---9----|--|----|
E|--5--5--0-5---5-0-5--5-0-5-0-5-0-|---7--7--0-7---7-0-7--7-0-7-0-7-0--|--|-/-5|

GUITARRA 2         LA                                 SI
          delay          delay                delay          delay
E|----(5)-........--(5)-........---|------(7)-........--(7)-........---|
B|----(5)-........--(5)-........---|------(7)-........--(7)-........---|
G|---------------------------------|-----------------------------------|X2
D|---------------------------------|-----------------------------------|
A|---------------------------------|-----------------------------------|
E|---------------------------------|-----------------------------------|

BAJO:

G|---------------------------------|-----------------------------------|--|
D|---------------------------------|-----------------------------------|X2|
A|---------------------------------|-----------------------------------|--|
E|--5--5--0-5---5-0-5--5-0-5-0-5-0-|---7--7--0-7---7-0-7--7-0-7-0-7-0--|--|

Sigue asi...

PARTE 1....
GUITARRA 1
E|------------------------------------------------|---------------------------------------------|
B|------------------------------------------------|---------------------------------------------|
G|------------------------------------------------|---------------------------------------------|
D|-9-(7)--9--7------------------------------------|--9-(7)--9-7---------------------------------|
A|----------------10--9-7---9-10-----7-9-10-------|--------------10-9-7----9-10-----7-9-10------|
E|--------------------------------7-----------7-5-|------------------------------7----------7-5-|

GUITARRA 2 (armonizado)
E|------------------------------------------------|---------------------------------------------|
B|-12-(10)-12-10----------------------------------|-12-(10)-12-10-------------------------------|
G|----------------12-11-9---11-12----9-11-12------|---------------12-11-9---11-12---9-11-12-----|
D|--------------------------------9-----------9-7-|-------------------------------9---------9-7-|
A|------------------------------------------------|---------------------------------------------|
E|------------------------------------------------|---------------------------------------------|

BAJO:   LA                      SI
G|--------------------------|----------------------------|
D|--------------------------|----------------------------|X2
A|--------------------------|----------------------------|
E|--5--5--5--5--5--5--5--5--|--7--7--7--7--7--7--7--7----|


PARTE 2:

GUITARRA 1
E|--------------------------------------|--------------------------------------------------|
B|--------------------------------------|--------------------------------------------------|
G|--------------------------------------|--------------------------------------------------|
D|-------2---------2-----4---4----4---4-|-------2---------2-------------------7-7-(7)~-(7)-|
A|-2-4-5---2~--4-5---------7--------7---|-2-4-5---2~--4-5----------------------------------|
E|--------------------5~-------5--------|--------------------5-5-5-5-5--5-7-5--------------|

GUITARRA 2: [SOL-LA-Sim-LAm]

BAJO:  SOL                    LA                      SI                    LA      
G|-----------------------|---------------------|-----------------------|-------------------|
D|-----------------------|---------------------|-----------------------|-------------------|
A|-----------------------|---------------------|-----------------------|-------------------|
E|-3-ƒ-3--0-2-3-ƒ-3--3-4-|5-ƒ-5--3-4-5-ƒ-5--5-6|-7-ƒ-7--5-6-7-ƒ-7--7-0-|-5-5-5-5-5-5-5-5---|


VERSO 1 (CON PARTE 1)

Con la Parte 1:

        Una vez, le hice el amor
        a un Drácula con tacones
        era pop violento que guió
        al gran estilo siniestro


ESTRIBILLO 1: (CON PARTE 2)

Con la Parte 2:

        Ahora ya no llora
        preso en mi ciudad 
        casi ya no llora
        atrapado en libertad

VERSO 2 (CON PARTE 1)

Practicamos tiro al pichón
y un test para ir al espacio
con mi delicioso campeón
y el rock como todo llanto

ESTRIBILLO 1: (CON PARTE 2)

ahora ya no llora...
Preso en mi ciudad 
Casi ya no llora,
¡atrapado en libertad!


VERSO 3 (CON PARTE 1)

Fue un esclavo sensible y chillón
y fácil para el gatillo
atrapó un beso bienhechor
con ojos al rojo vivo.

SOLO DE SAXO:

 CON PARTE 2:

GUITARRA 1
E|--------------------------------------|--------------------------------------------------|
B|--------------------------------------|--------------------------------------------------|
G|--------------------------------------|--------------------------------------------------|
D|-------2---------2-----4---4----4---4-|-------2---------2-------------------7-7-(7)~-(7)-|
A|-2-4-5---2~--4-5---------7--------7---|-2-4-5---2~--4-5----------------------------------|
E|--------------------5~-------5--------|--------------------5-5-5-5-5--5-7-5--------------|

GUITARRA 2: [SOL-LA-Sim-LAm]

BAJO:  SOL                    LA                      SI                    LA      
G|-----------------------|---------------------|-----------------------|-------------------|
D|-----------------------|---------------------|-----------------------|-------------------|
A|-----------------------|---------------------|-----------------------|-------------------|
E|-3-ƒ-3--0-2-3-ƒ-3--3-4-|5-ƒ-5--3-4-5-ƒ-5--5-6|-7-ƒ-7--5-6-7-ƒ-7--7-0-|-5-5-5-5-5-5-5-5---|

VERSO 4 (CON PARTE 1)

Con la Parte 1:

        Una vez, le hice el amor
        a un Drácula con tacones
        era pop violento que guió
        al gran estilo siniestro


ESTRIBILLO 4: (CON PARTE 2)

Con la Parte 2:

        Ahora ya no llora
        preso en mi ciudad 
        casi ya no llora
        atrapado en libertad

VERSO 5 (CON PARTE 1)

Practicamos tiro al pichón
y un test para ir al espacio
con mi delicioso campeón
y el rock como todo llanto

ESTRIBILLO 5: (CON PARTE 2)

ahora ya no llora...
Preso en mi ciudad
Casi ya no llora,
¡atrapado en libertad!


SOLO DE SAXO 2:  (con PARTE 2)

GUITARRA 1                                                                                 FIN
E|--------------------------------------|------------------------------------------------|------|
B|--------------------------------------|------------------------------------------------|------|
G|--------------------------------------|------------------------------------------------|------|
D|-------2---------2-----4---4----4---4-|-------2---------2------------------7-7-(7)~-(7)|9-(7)~|
A|-2-4-5---2~--4-5---------7--------7---|-2-4-5---2~--4-5--------------------------------|------|
E|--------------------5~-------5--------|-------------------5-5-5-5-5--5-7-5-------------|------|

GUITARRA 2: [SOL-LA-Sim-LAm]

BAJO:  SOL                    LA                      SI                    LA             FIN
G|-----------------------|---------------------|-----------------------|-----------------|-------
D|-----------------------|---------------------|-----------------------|-----------------|-------
A|-----------------------|---------------------|-----------------------|-----------------|-%-%-%-
E|-3-ƒ-3--0-2-3-ƒ-3--3-4-|5-ƒ-5--3-4-5-ƒ-5--5-6|-7-ƒ-7--5-6-7-ƒ-7--7-0-|-5-5-5-5-5-5-5-5-|5-5-5-5

*el bajo y l abateria siguen un poco mas que la guitarra -----

fin.