Intro:
                                                     x2
1>------------------ 2---2--------5---------2--2--------
2>-------------------3---3--4-6-7---8-7-5e--3--3-------
3>-------------------2---2------------------2--2------
4>------4-7--6/7/6e--0---0------------------0--0------
5>-3-5-------------------------------------------------
6>-----------------------------------------------------
							x2
1>---------------------2--2----------------------2--2------
2>---------------------3--3----------------------3--3------
3>---------------------2--2----------------7e----2--2------
4> ----7-6-4----------0--0----7-6-4--------------0--0------
5>------------3/5e---------------------3-------------------
6>---------------------------------------------------------

La7     Re7     La7
Volanteás, volcás
La7    Re7    La7
Tu taxi paranormal,
Tan fuera de foco,
Meloneando el coco, 
                        Do
Parpadeando a lo gurú-vudú.
Do7
Definitivamente limpio.
Definitivamente curado.
Así también te ves bien.
La7     Re7     La7
Ciego de felicidad,
Tu cerebro es un jabón.
Con tu flor de espadas
En plan de chofer suicida
Y de curabichero online.
Pero a veces, muy pocas veces
Se te escapa un poquito el diablo.
Así también te ves bien.
Intermedio: {D7-C7}x3 {D7-C}{D7-C7}x3 {D7-C-C7}
La7    Re7    La7
Te servís, brindás
Con un consejito cruel.
Loco por una colilla
Vas en carne viva
Y gracias por el trago, man.
Dicen que ya no hay huevos de oro
Al final del arcoiris.
Las reliquias huelen mal.
Abracada bla bla.
Estás tan sonaja, man.
Cara de loco esqueleto.
Masticás la pepa
De loquito, ye, ye.
Definitivamente limpio.
Definitivamente curado.
Así también te ves muy bien.
     La7     Re7     Do7   Do
----0--|----2--|---x--|-0--
----2--|----1--|---1--|-1--
----0--|----2--|---3--|-0--
----2--|----0--|---2--|-2--
----0--|----X--|---3--|-3--
----X--|----X--|---x--|-x--