.Pablo Lizardo
.pablo_lizardo@hotmail.com

-----------------------------14-|-------------------------|-------------------
------------15-15-------15---15-|----------15-15-------15-|-15-15-------15----
--------14--------16-14------14-|-------14-------16-14----|-------16-14-------
--15-16----------------------16-|-15-16-------------------|-------------------
--------------------------------|-------------------------|-------------------
--------------------------------|-------------------------|-------------------
 x2    (intro)                                             x2                 

---------|-----|-15-xxx-14-xxx-12-xxx-15-xxx-14-xxx-17-xx---------------------
-15-15b--|-15b-|-15-xxx-15-xxx-14-xxx-15-xxx-15-xxx-17-xx---------------------
---------|-16b-|-16-xxx-14-xxx-12-xxx-16-xxx-14-xxx-18-xx---------------------
---------|-----|-17-xxx-16-xxx-14-xxx-17-xxx-16-xxx-19-xx---------------------
---------|-----|--------------------------------------------------------------
---------|-----|--------------------------------------------------------------
                 y ahora comienza la cancion con ritmo de R&R                 

-14--|-15--|-12---------------------------------------------------------------
-15--|-15--|-14---------------------------------------------------------------
-14--|-16--|-12---------------------------------------------------------------
-16--|-17--|-14---------------------------------------------------------------
-----|-----|------------------------------------------------------------------
-----|-----|------------------------------------------------------------------
 Sim7   Sol     La7                                                               

----------------------|-------------------|----------------------|------------
----------------------|-------------------|----------------------|------------
-------14-16-14-16b17-|-16-14-16-14-------|----------------------|------------
-15-16----------------|-------------15-16-|-------15-17-15-17b18-|------------
----------------------|-------------------|-15-17----------------|------------
----------------------|-------------------|----------------------|------------
 x3 (0.44) Bm7          Bm7                x3 G                               

-------------------|----------------------|-----------------------------------
-------------------|----------------------|-----------------------------------
-------------------|----------------------|-----------------------------------
-17-15-17-15-------|-------12-14-12-14b15-|-----------------------------------
-------------15-17-|-12-14----------------|-----------------------------------
-------------------|----------------------|-----------------------------------
 Sol                   La7                                                       

supongo que alfinal los deje en bolas a todos!'?!?... 
pero bueno no se quejen... ya tienen la torta amasada!...
 solo tienen que meterla al orno!!... o algo asi... 
creo.. o digamos com oque tienen.. una galletita... porque esta 
transcripcion tiene de todo menos de torta... bue.. basta 
de idioteces que la gente ya no se rie... okay.. chau