INTRO: 
                              x3
e----------------------------||-------------------|
B----------------------------||-------------------|
G----------------------------||---------------4-4-|
D------------------------2h4-||---------------4-4-|
A--------------------2h4-----||-------------------|
E--0h2-2-0h2-2-0h2-2---------||-0h2-2-0h2-2-0-----|


RIFF:
e-----------------------------------------------|
B-----------------------------------------------|
G-------------------------------------------4-4-|
D------------------------2h4----------------4-4-|
A--------------------2h4------------------------|
E--0h2-2-0h2-2-0h2-2----------0h2-2-0h2-2-0-----|


Fa#
Mi vieja crió un idiota de corazón lunático, 
Si
dicen mil rockanroles por los satélites, 
dicen mil rockanroles desde los satélites.

RIFF

A un perro se lo cura como se cura a un perro, 
dicen mil rockanroles por los satélites, 
dicen mil rockanroles desde los satélites.

[ C# ]

E5-Eb5-D5-C#
           ¡Nueva Roma! 
E5-Eb5-D5-C#
           ¡Te cura o te mata! 
E5-Eb5-D5-C#
           ¡Nueva Roma! 
E5-Eb5-D5-C#
            ¡ya está!


[punteo sobre 8 vueltas de RIFF]


¡Nueva Roma! ¡Te cura o te mata! 
¡Nueva Roma ya está!


[punteo sobre 4 vueltas de RIFF]


Locura de locuras, porfiar dados trucados, 
dicen mil rockanroles por los satélites, 
dicen mil rockanroles desde los satélites.

RIFF

Las máquinas vigías pasan volando el mundo, 
dicen mil rockanroles por los satélites, 
dicen mil rockanroles desde los satélites.

SAXO: C#   F#   C#  E5 F#5 

G5-F#5-F5-E5-D5-C#5-C5-B5-A#5-A5-Ab5-G5-F#5

E5    F#5
!ya está¡