Intro:

Riff I
e|----------------------------------------|
B|----------------------------------------|
G|----------------------------------------|
D|------3----3-----3----33-----3---3----3-|
A|----------------------------------------|
E|-0011---11---111---11----011---11--11---|

Riff II
e|----------------------------------------|
B|----------------------------------------|
G|-------------------------------------8--|
D|-------------------------------------8--|
A|---6-8----8-8-6---8-6--6-8---8-6-8-6-6--|
E|-8-----8--------8-----8----8------------|

Riff I
Nose muy bien sobre que pierna bailo
(a veces me agarra)
perdí mi cupo para gas nervioso
y noticias piratas

Riff II
Noticias de ayer extra! extra!
Noticias de ayer extra! extra!

EL TEMA SIGUE IGUAL. EL PRIMER SOLO ES ASI:

e|-----------------------------------------------|
B|-----------------------------------------------|
G|-5-4-----5-4-----5-4-----5-4-------------------|
D|-----3-5-----5-3-----5-3-----5-3-2p3h2p3h2p3h2-|
A|-----------------------------------------------|
E|-----------------------------------------------|

EL SEGUNDO ES ASI:

e|----------------------------------------------------|
B|----------------------------------------------------|
G|5-4---5-4---5-4---5-4---7-6---7-6---7-6---7-6---7-6-|
D|---3-5---5-3---5-3---5-3---7-5---7-5---7-5---7-5----|
A|----------------------------------------------------|
E|----------------------------------------------------|