Intro y versos
e|-------------1--|-------------1----|-------------3-|-------------3--|
b|-------------3--|-------------3----|-------------3-|-------------3--|
G|-------------2--|-------------2----|-------------0-|-------------0--|
D|-0-0-0-0-0-0-0--|-0-0-0-0-0-0-0----|-0-0-0-0-0-0-2-|-2-2-2-2-2-2-2--|
A|----------------|------------------|---------------|----------------|
E|----------------|------------------|---------------|----------------|

e|-------------0--|-------------2----|-------------1-|-------------1-|
b|-------------2--|-------------0----|-------------3-|-------------3-|
G|-------------0--|-------------2----|-------------2-|-------------2-|
D|-2-2-2-2-2-2-2--|-0-0-0-0-0-0-0----|-0-0-0-0-0-0-0-|-0-0-0-0-0-0-0-|
A|----------------|------------------|---------------|---------------|
E|----------------|------------------|---------------|---------------|



Sigue con el punteo del intro.......

En este film velado en blanca noche
el hijo tenaz de tu enemigo  
el muy verdugo cena distinguido
una noche de de cristal que se hace añicos



Fa           Do   
no lo soñe yeeeee
Bb                        Dm......ver abajo
se enderezo y brindo a tu suerte
Fa           Do  
no lo soñe yeeee
La#                        Rem          
y se ofrecio mejor que nunca
La#                  Fa  
no mires por favor y no prendas la luz
Sol                     La
la imagen te desfiguro


Cuando dice (se enderezo y brindo a tu suerte) hace:

e|--7/8--5-------------------------|
B|---------8--5--------------------|
G|--------------7--5--7(b9)--5-----|
D|-----------------------------7---|
A|---------------------------------|
E|---------------------------------|



 Pre solo: Dm-G-A7 Cuatro veces                   
 Solo:
E|----------------------------------------------|
B|--------6--8/10-10-10-8-6/8-5-------------5---|
G|---6-7------------------------7-7-7-6-6-7-----|
D|-7--------------------------------------------|
A|----------------------------------------------|
E|----------------------------------------------|
 
E|----------------------------------------------|
B|-8-6-5--8-6-5--8-6-5--8-6-5-------5-6---------|
G|----------------------------7-6-7-----7-6-7---|
D|----------------------------------------------|
A|----------------------------------------------|
E|----------------------------------------------|
                                  
E|----------------------------------------------|
B|--------6--8/10-10-10-8-6/8-5-------------5---|
G|---6-7------------------------7-7-7-6-6-7-----|
D|-7--------------------------------------------|
A|----------------------------------------------|
E|----------------------------------------------|
 
E|----------------------------------------------|
B|-8-6-5--8-6-5--8-6-5--8-6-5-------5-6---------|
G|----------------------------7-6-7-----7-6-7---|
D|----------------------------------------------|
A|----------------------------------------------|
E|----------------------------------------------|
                     
E|-------------------------------|--------------|
B|-------------------------------|--------------|
G|-10~-12-10-9h10p9--------------|--------------|
D|------------------10-10-12-10~-|-10-12-10-12~-|
A|-------------------------------|--------------|
E|-------------------------------|--------------|


E|-----------------10--------10-12~-13h15p13-|-15-13-12h13p12-------------|
B|--------------10----13(15)-----------------|----------------13-13-15-13-|
G|----10-12(14)------------------------------|----------------------------|
D|-12----------------------------------------|----------------------------|
A|-------------------------------------------|----------------------------|
E|-------------------------------------------|----------------------------|


E|-----------------------|--------------10--------------------------------|
B|--------------10-------|-----------------13-10--------------------------|
G|----10-12(14)----12p10-|----10-12(14)----------12(14)12p10----10-12-----|
D|-12--------------------|-12--------------------------------12-------12~-|
A|-----------------------|------------------------------------------------|
E|-----------------------|------------------------------------------------|


E|-15(17)-15(17)-|-15(17)15-13-|-15(17)-15(17)-|-15(17)15p13-15(17)15-13----|
B|---------------|-------------|---------------|-------------------------15-|
G|---------------|-------------|---------------|----------------------------|
D|---------------|-------------|---------------|----------------------------|
A|---------------|-------------|---------------|----------------------------|
E|---------------|-------------|---------------|----------------------------|


E|-------20(22)-20(22)-20~-|
B|----18-------------------|
G|-19----------------------|
D|-------------------------|
A|-------------------------|
E|-------------------------|



este film da una imagen exquisita
esos chicos son como bombas pequeñitas     
el mejor camino a la cueva del perico
para tipos que no duermen por la noche.

no lo soñe yeeee
ibas corriendo a la deriva
no lo soñe yeeeee
los ojos ciegos bien abiertos
no mires por favor y no prendas la luz
la imagen te desfiguro

el montaje final es muy curioso
es en verdad realmente entretenido  
vas en la oscura multitud desprevenido
tiranizando a quienes te han querido

no lo soñe yeeee
se enderezo y brindo a tu suerte
no lo soñe yeeee             
y se ofrecio mejor que nunca

no lo soñe yeeeeee
ibas corriendo a la deriva
no lo soñe yeeee
los ojos ciegos bien abiertos
no mires por favor y no prendas la luz
la imagen te desfiguro