Riff1:
1|---------------------------------------------------------------------
2|--------------------------6------------------------------------------
3|--------8---8-6-8-6--9---8-6----------6----------7----------7--6-----
4|---4-------------------------------7-----7----7-----7--7----7--6--7---
5|---4-----------------------------7---7-------7--7----7----7-------7--
6|--------------------------------------------------------------------

Riff2:
1|-----------------------------------------------
2|---7/8-7-5---4/5-7-8------------------------
3|----------------------------------------------
4|-----------------------------------------------
5|----------------------------------------------
6|-----------------------------------------------

Intro: Riff1+ Riff2
Fa#
Buche, sebo, buche
                Fa7
Vos, bola de mierda.
                  Fa#
Ya no hay más propina, no, no, no.
Riff2
Fa#
Un borracho malo,
             Fa7
Carne que camina
               Fa#
Parida con un pedo triste.

Riff2

Sos un moscón zumbón
Que quedó atrapado
En un vaso boca abajo.

SOLO

Penas del corazón
Que duran siempre menos
Que las de prisión, chivato.

Riff2


Bueno espero que les sirva, si alguien la tiene el
 solo no dude en mandármelo.
AGUANTEN LOS REDONDOS!!!!