ESTA CANCUION SE LA DEDICO A TODOS MIS AMIGOS QUE SON TODOS 
UNA MASA 
  INTRO:DOm-Sol#-Sol
1 ------------3---------------------------
2 ------------3---------------------------  riff1
3 ------------4---------------------------
4 ------------5---------------------------
5 --3-3-1-----5---------------------------
6 --------4-3-3---------------------------

Dom               Sol#   Sol  
Aunque de sueño pueda matarme
Dom             Sol#         Sol 
vas a temblar siempre en mi pecho
Dom              Sol#     Sol
con tu vestido blanco de gala
Dom              Sol#    Sol      Sol#
sos amuleto de noche desbelada ha ha...
             Sol# La# Dom
sorrita embustera ha ha...
1---------------------
2---------------------
3---------------------
4---------------------  riff2
5---6-5--1-3----------
6---------------------

manoseada por nenes y nenas
luchando contra viento y marea
de compañia celosa y envidiosa
sos banquete de noche y de velada
y caras de piedra
                   riff2
                   riff1
Sol
burlando al corazon

Sol contigo pan y cebolla
1-------------------------------
2-------------------------------
3-------------------------------  riff3
4--------5-3-1-0--------5-3-1-0-
5----3--------------3-----------
6--3---3----------3---3---------
punteo...
tu silueta es atrapante
ojos no pueden negar tu dulsura
pies cansados de un ritmo firme 
tu intencion no es matarlos o herirme he he...
pero tal vez me abandone he he...

te despediras de vieja espero
no olvidare ni olvidaran los compañeros 
calor y frio gozan sin sentido habra sido 
amigo amiga esposa o marido
     riff2
     riff1
Sol                     ]
burlando al corazon     ]
                  riff1 ] repite
contigo pan y cebolla   ]
                        ]

aguante los redondos 
y los locos de capitan bermudez