Redondos Luz belito  (TAB)

Introducción: [Riff]x4
E--------------------0-0---------------0-0--|
B--------------------0-0---------------0-0--|
G-------------------------------------------|
D--2----------------------2--2---2-2-2------|
A--2--4--5--4-2-----------2--2---2-2-2------|
E--0-------------3--------0--0---0-0-0------|


   Mim       Re
   Luzbelito sabe que
Rem                 Lam
su destino es de soledad
Mim               Re
ve también que los demás
         Do                     Lam
se dan cuenta de la risa que le da.


    Re    Do      Si     Lam   Sol  Sol  Lam  Lam
   Ay!   Ay!   Ay!   que     ri-    sa-    le-    da.

    Re    Do      Si     Lam   Sol    Si    Sol   Lam
   Ay!   Ay!   Ay!   que     ri-    sa-    le-    da.


Puente: [Riff]x2

   Un par de culos va a patear
de los que le juran más lealtad.
   Y llorará en su corazón
como un nazareno del Cuzco.

   Ay!   Ay!   Ay!   esa lágrima.
   Ay!   Ay!   Ay!   que risa le da.

Solo de guitarra: [ (MIm)x2 - LAm-SI-DO-RE]x4 - SI7

   La vida sin problemas es
matar el tiempo a lo bobo.
   Si un Dios bobeta ¡Bim.bum.bam!
toca un rocanrol lacrimógeno.

   Ay!   Ay!   Ay!   esa lágrima.
   Ay!   Ay!   Ay!   que risa le da.

Puente: [Riff]x2

   Estos ojos... de quién son?
de quién son mis deseos de hoy?
   Y este insomio de quién es?
(Luzbelito pregunta una y otra vez...)

   Ay!   Ay!   Ay!   mis deseos de hoy...
   Ay!   Ay!   Ay!   mis deseos de hoy...

Puente: [Riff] repite perdiéndose

RIFF
E--------------------0-0---------------0-0--|
B--------------------0-0---------------0-0--|
G-------------------------------------------|
D--2----------------------2--2---2-2-2------|
A--2--4--5--4-2-----------2--2---2-2-2------|
E--0-------------3--------0--0---0-0-0------|