INTRO
               [A7/Am/A7/Am]             				     
e|-------|--------0-0-0-0---------------------------------------|-
B|-------|*-------1-1-1-1--------------------------------------*|--
G|-------|--------0-2-0-2---------------------------------------|---| todo 
esto  
D|--0L2--|--------2-2-2-2---2-----------------------------0-2---|---| 
dos veces
A|--0----|*--0-0--0-0-0-0-----3-----5---3-3-2-2-0---0-2-3------*|--
E|-------|----------------------5-0-----------------------------|-
 | solo  |
 | en la |
 | INTRO |

"Nota: Cuando termina la intro hace A7-Am-A7-Am para empezar el tema"

Letra y acordes:

Lam	Sim	   Do	       Re     Mi	     Lam
 Venia rapido muy rapido y se le solto un patin
	  Sim		   Do	     Re	   Mi	   Lam
 a el que era rey de esta jungla se le solto un patin


Riff 1
      [A7/Am/A7/Am]           	       [A7/Am/A7/Am] 
e|-------0-0-0-0--------------------------0-0-0-0--|
B|-------1-1-1-1--------------------------1-1-1-1--|
G|-------0-2-0-2--------------------------0-2-0-2--|
D|-------2-2-2-2---2----------------------2-2-2-2--|
A|--0-0--0-0-0-0-----3-----5---3-3-2-2-0--0-0-0-0--|
E|---------------------5-0-------------------------|


Lam	 Sim		 Do	       Re     Mi    Lam
 su corazon no era un hotel aunque corria ese rumor
	     Sim		     Do		   Re       Re       Lam
 y hoy tiene una ente otras luces en este bosque siempre cruel


Riff 2
     [A7/Am/A7/Am]
|-------0-0-0-0--------------------------------------|
|-------1-1-1-1--------------------------------------|
|-------0-2-0-2--------------------------------------|
|-------2-2-2-2---2-----------------------------2-0--|
|--0-0--0-0-0-0-----3-----5---3-3-2-2-0---0-2-3------|
|---------------------5-0----------------------------|


D	     Dsus4/C-D	
 dejo un billete      que pide a gritos que lo gaste	



Riff 3

A|----3-2-------3-2--------|   esto por
E|--5-----3-5-------0-3-0--| cuatro veces


Base en acordes: [D-F-Am] x 2


G-D		Dsus4/C-D			      Am + Intro x 2
   como una hoja 	 derivo en tu mismo turbio rio


Lam	   Sim		Do	    Re	  Mi   Lam
 entre amuletos y talismanes su destino desafio
	 Bm	    C	      D	   E   Am + Riff1
si su nariz crecia de tamaño prometia mas


Lam	  Sim	      Do		      Re       Mi     Lam
 no le robaba nunca  nada a nadie, a nadie en especial 
	    Sim		  Do	 Re     
E      Am + Riff 2
gano un orzuelo de tercer ojo y su nariz sangro
D	       Dsus4/C-D		 Riff 3 + Base en acordes
 no hubo caricia 	para su celo moro
G-D	      Dsus4/C-D				     PUNTEO FINAL
   y ahora mira 	crecer las flores desde abajo
 


PD: Si quieren mas temas de los Redondo o algunoen especial haganmelo 
saber a conanelca@hotmail.com
   Muchas gracias.