INTRO:
guitarra:
                  Do#
e|------|--4-4-x-x--4-4-x-x--4-4-x-x---4-4-x-x---4-4-x-x--(5)-x-(5)-|
B|------|--4-4-x-x--4-4-x-x--4-4-x-x---4-4-x-x---4-4-x-x--(5)-x-(5)-|
G|------|-----------------------------------------------------------|X6
D|------|-----------------------------------------------------------|
A|------|-----------------------------------------------------------|
E|-14/--|-----------------------------------------------------------|

BAJO:           DO#
G|------|--------------|--------------------|
D|------|--------------|--------------------|x6
A|------|--4----4----2-|-4-----4-----5---5--|
E|------|----4----4----|----4------4---4----|


VERSO 1:

BAJO:      DO#                                 MI                           
G|--------------|--------------------|--|-------------|----------------|-----------|------------|
D|--------------|--------------------|X2|-------------|----------------|-----------|------------|
A|--4----4----2-|-4-----4-----5---5--|--|--7----7-----|-7----7---8---8-|-7---7-----|-7---7--7-7/5
E|----4----4----|----4------4---4----|--|-----7---7-5-|----7---7---7---|---7---7-5-|---7---7----|

GUITARRA  
                 Do#
e||--4-4-x-x--4-4-x-x--4-4-x-x---4-4-x-x---4-4-x-x--(5)-x-(5)-|
B||--4-4-x-x--4-4-x-x--4-4-x-x---4-4-x-x---4-4-x-x--(5)-x-(5)-|
G||-----------------------------------------------------------|X2
D||-----------------------------------------------------------|
A||-----------------------------------------------------------|
E||-----------------------------------------------------------|
y despues
                Mi
e||--7-7-x-x--7-7-x-x--7-7-x-x---7-7-x-x---7-7-x-x--(8)-x-(8)-|
B||--7-7-x-x--7-7-x-x--7-7-x-x---7-7-x-x---7-7-x-x--(8)-x-(8)-|
G||-----------------------------------------------------------|X2
D||-----------------------------------------------------------|
A||-----------------------------------------------------------|
E||-----------------------------------------------------------|

Do#m
Rey Garufa.

Ay, mientras Wálter invade nuestra fiesta
El Capitán Buscapina salda deudas.
Mi
 Sentado, en bolas, watcheando la tele
Donde se matan, hoy, el pincha y los canallas.


PUENTE: [Do#]

BAJO:           DO#
G|--------------|--------------------|
D|--------------|--------------------|x2
A|--4----4----2-|-4-----4-----5---5--|
E|----4----4----|----4------4---4----|

GUITARRA:
                Do#
e||--4-4-x-x--4-4-x-x--4-4-x-x---4-4-x-x---4-4-x-x--(5)-x-(5)-|
B||--4-4-x-x--4-4-x-x--4-4-x-x---4-4-x-x---4-4-x-x--(5)-x-(5)-|
G||-----------------------------------------------------------|X2
D||-----------------------------------------------------------|
A||-----------------------------------------------------------|
E||-----------------------------------------------------------|

 Do#m
 ey!ey!eh.

ESTRIBILLO 1:

BAJO: Sol   MI    SOL    MI
G|-------------|-------------||
D|-------------|-------------||
A|-------------|-------------||
E|--3-3-3--(0)-|--3-3-3--(0)-||

GUITARRA:
     Sol         Mi      Sol         Mi
e|-------------------|-------------------|
B|-------------------|-------------------|
G|-------------------|-------------------|
D|--5--555-555--(2)--|--5--555-555--(2)--|
A|--5--555-555--(2)--|--5--555-555--(2)--|
E|--3--333-333--(0)--|--3--333-333--(0)--|

GUITARRA 2:
e|--3--333-333--(0)--|--3--333-333--(0)--|
B|--3--333-333--(0)--|--3--333-333--(0)--|
G|-------------------|-------------------|
D|-------------------|-------------------|
A|-------------------|-------------------|
E|-------------------|-------------------|

Sol             Mi
Wálter invade la Tierra.
Sol
Dandy border.
MI         PUENTE
Dandy dominó.



****PUENTE (igual)****



VERSO 2 (igual)

Su princesita, ay, se transformó en sapito
Y sus minutos de gloria no aparecen.
Así el fiestero Rey Garufa viaja solo
Y vaga con su corazón entre las manos.

**PUENTE (igual)**

ESTRIBILLO 2 (igual)

Sol             Mi
Wálter invade la Tierra.
Sol
Dandy border.
Mi         
Dandy dominó.

INTERMEDIO:

BAJO:           DO#                   MI              FA#                LA         La     silen.
G|--------------|----------------|-----------------|---------------|-------------|---------|---|
D|--------------|----------------|-----------------|---------------|-------------|---------|-#-|
A|--4----4----2-|-4-----4--------|-----------------|---------------|0-0-0-0-0-0-0|0-0-0-(0)|---|
E|----4----4----|----4-----(4)---|-0-0-0-0-0-0-0-0-|-2-2-2-2-2-2-2-|-------------|---------|---|

GUITARRA 1:
       [DO#- MI5-FA#5-LA5]

GUITARRA 2:    FILL1      
e|-/9b--/14|------------------------|-------|-------|-------|--------------|
B|---------|-----5/7-8--7p5---------|-------|-------|-------|--------------|
G|---------|-4-6-------------6-(6)~-|--MI5--|--FA#5-|--LA5--|--------------|
D|---------|------------------------|-------|-------|-------|-7-7-7-(7)----|
A|---------|------------------------|-------|-------|-------|-7-7-7-(7)----|
E|---------|------------------------|-------|-------|-------|-5-5-5-(5)----|


DO#  MI5               F#5
     Es amo de resacas
                   A5
   Surfeando avalanchas.
   Sabe que la vida es corta.



 ****REPETIR PUENTE (igual)***

VERSO 3:

Do#m
Abróchense los cinturones, mis queridos,
Ante el mejor campeón de amor, el psicohéroe,
Mi
 Que en el Casino Argentina se devora
  A Comboman con su bocado maravilla.

****REPETIR PUENTE****

ESTRIBILLO 2: (igual)

Wálter invade la Tierra.
Dandy border.
Dandy dominó.


INTERMEDIO 2: 

MI5                   FA#5
  No es perita en dulce.
                       LA5
Es farándula de clones.
Súper Wálter guaterpruf.


BAJO:           DO#                   MI              FA#                LA         La     silen.
G|--------------|----------------|-----------------|---------------|-------------|---------|---|
D|--------------|----------------|-----------------|---------------|-------------|---------|-#-|
A|--4----4----2-|-4-----4--------|-----------------|---------------|0-0-0-0-0-0-0|0-0-0-(0)|---|
E|----4----4----|----4-----(4)---|-0-0-0-0-0-0-0-0-|-2-2-2-2-2-2-2-|-------------|---------|---|

GUITARRA 1:
       [DO#- MI5-FA#5-LA5]

GUITARRA 2:    FILL2      
e|-/9b--/14|--------12-14-15-14-12----|-------|-------|-------|--------------|
B|---------|-12-14-----------------14-|-------|-------|-------|--------------|
G|---------|--------------------------|--MI5--|--FA#5-|--LA5--|--------------|
D|---------|--------------------------|-------|-------|-------|-7-7-7-(7)----|
A|---------|--------------------------|-------|-------|-------|-7-7-7-(7)----|
E|---------|--------------------------|-------|-------|-------|-5-5-5-(5)----|


SOLO DE SAXO:

Guitarra:
                  Do#
e||--4-4-x-x--4-4-x-x--4-4-x-x---4-4-x-x---4-4-x-x--(5)-x-(5)-|
B||--4-4-x-x--4-4-x-x--4-4-x-x---4-4-x-x---4-4-x-x--(5)-x-(5)-|
G||-----------------------------------------------------------|X4
D||-----------------------------------------------------------|
A||-----------------------------------------------------------|
E||-----------------------------------------------------------|

BAJO:           DO#
G||--------------|--------------------|
D||--------------|--------------------|x4
A||--4----4----2-|-4-----4-----5---5--|
E||----4----4----|----4------4---4----|


SOLO DE GUITARRA:   


BAJO:           DO#
G||--------------|--------------------|
D||--------------|--------------------|x10  o  12  (fade out)
A||--4----4----2-|-4-----4-----5---5--|
E||----4----4----|----4------4---4----|


Guitarra (solo)

e|-----9--|---9----9---9----9-|---(7)--77--7777--|-6-4--4-6-7-------------|--------------|
B|-8-9----|8b---8b---8b--8b---|-9----------------|------------(5)~--/-(2)~|--------------|
G|--------|-------------------|------------------|------------------------|----#---------|
D|--------|-------------------|------------------|------------------------|--------------|
A|--------|-------------------|------------------|------------------------|--------------|
E|--------|-------------------|------------------|------------------------|--------------|

e|-14b-14-12-12--(14b)-|-------------------|-1212--12-12-12-12-12-12-12-|-----------------------|
B|---------------------|-(8b)--9-7-6--(9~)-|----------------------------|-12-12-11-11-9-9--8b---|
G|---------------------|-------------------|----------------------------|-----------------------|
D|---------------------|-------------------|----------------------------|-----------------------|
A|---------------------|-------------------|----------------------------|-----------------------|
E|---------------------|-------------------|----------------------------|-----------------------|

e|---------------------|
B|-8-9--8-9--8-9-------|
G|---------------(9~~)-|
D|---------------------|
A|---------------------|
E|---------------------|

fin.