MODIFICACION A LA TRANSCRIPCION DE
Agustina "La Negra" (Viole79@arnet.com.ar)
**********************************************************************

Riff:
          A base
e|------------------------
B|------------------------
G|---2--------------------
D|---2--------------------
A|---0-------3-0----------
E|---------------3--------

A     C/A       D/A      A
Cacería     hecha con dos naipes
        A   C/A             D/A    A
(Datos feos,    por eso brindamos)
Re            La         Re            La
 El mejor testigo se puede contradecir
Re             La
 Por eso brindamos.
    Do         Re     La
ladrón de mi cere-bro

Trato hecho sobre un tapete
comodines y las jotas abren
Ella es bailarina de la caja musical
él es el peligro,
ladrón de mi cerebro.

No quiero que me digas nada
si es tan duro vivir como un duro
Si corres peligro con solo venir aquí
no me digas nada,
ladrón de mi cerebro.

Acordes :

A:             C/A:           D/A:
e|-----------  e|---5-------  e|-2-----5---
B|---2-------  B|---5-------  B|-2-3-------
G|---2-------  G|---5-------  G|-2---------
D|---2-------  D|-----------  D|-2---4-----
A|---2-------  A|-----------  A|-----------
E|-----------  E|-----------  E|-----------

D:             C:
e|--2--------  e|-----------
B|-----3-----  B|-1---------
G|--2--------  G|-----------
D|-----------  D|---2-------
A|-----------  A|-----3-----
E|-----------  E|-----------


Bueno espero que les guste suerte mi mail
es francisco_fta@hotmail.com cualquier
cosa...