Intro: (tocar una sola vez cada acorde)
D#5 - C#5 - F#5 - D#5 - C#5 (x2)

(durante las estrofas mantiene la misma base que en la intro)
D#5
   Un día después,
C#5              F#5
  (después de vos...)
           D#5    C#5
cruce los de - dos.
La barca pasó
y el río quedó, al fin, quieto

F# C#(x2) Riff
Riff:
|--------------------------|   h=hammer
|--6h7--6------------------|   ~=vibrato
|----------8--6-----8~-----|
|----------------8---------|
|--------------------------|
|--------------------------|

Solo un cuento fue
que ayudó a pasar un buen rato
Un castillo de naipes que cayó
y palabras baratas

Estribillo (con distorsion):
A#5
En el aire entre los dos
F#5             F5
brilló una copa rota
Mala suerte, mi palma dio un destino oscuro
Un dulce licor de romero
fue la mala idea loca
Te vas a enterar por esta canción
para "el carioca"!

No sueño mas con vos
ya cayó otra flor del cielo
Te voy a robar esta canción de amor
y de consuelo

Solo:
|-------------------------------6------9-------------
|-----------------------------6---11-----11----9-11↑-
|--↑8-↓8-6----6-------6↑--8↑----------------10-----
|----------8-----8-8---------------------------------
|----------------------------------------------------
|----------------------------------------------------

|-↑11-↑11-11-9---------6----6----------
|---------------11-11----6---9↑---9-6--
|---------------------↑8------------9--
|--------------------------------------
|--------------------------------------
|--------------------------------------

|-----------------------------
|-----------------------------
|8-6---6-↑8↓8p6-8-↑8-↑8-8-6---
|---------------------------8-
|-----------------------------
|-----------------------------


|------------------------------------
|--------------------------14----↑16-
|-------6-----6-------8/15----15-----
|-----8---8-----8---8----------------
|------------------------------------
|------------------------------------

16-16--16--16--16-
--↑16-↑16-↑16-↑16-
------------------
------------------
------------------
------------------

--16--16--16--16-
-↑16-↑16-↑16-↑16-
-----------------
-----------------
-----------------
-----------------

|--16--16---16--16---16--16---------
|-↑16-↑16--↑16-↑16--↑16-↑16--16-14--
|-----------------------------------
|-----------------------------------
|-----------------------------------
|-----------------------------------

|16-14------------------------
|-----15-----6-8-↑8↓8p6----8--
|-------6h8------------8------
|-----------------------------
|-----------------------------

↑=bend arriba|↓=bend abajo|/=arrastrada|h=hammer on|p=pull off


A la suave luz de la luna
vi tu espalda
hay un lugar allí para mis huellas
y un lunar nocturno

F# C#(x2) Riff

Apostamos mal
serás mas feliz vagabundeando
Muy poco amable fui
nada nuevo vi en tus ojos.

Estribillo

Un dia despues....