Tablatura: Tato Vaquero. tatoquero@hotmail.com
Cualquier herror escribime.



 INTRO

 1 -------------------------------------------------
 2 -------------------------------------------------
 3 -------7-----5-5---4-----------------------------
 4 -0-4-0---0-0-----0---0-5-7-----------------------
 5 -------------------------------------------------
 6 -------------------------------------------------

 LUEGO
  ---------------------------------------------------
  ---------------------------------------------------
  ----7-7---5-5---4-4---3----------------------------
  ----7-7---5-5---4-4---3----------------------------
  ----5-5---3-3---2-2---1----------------------------
  ---------------------------------------------------



  ----------------------------------------------------
  ---------------------------------------------------
  ----7-7---5-5---4-4---3----------------------------
  ----7-7---5-5---4-4---3-5-2--------------------------
  ----5-5---3-3---2-2---1-3-0--------------------------
  ---------------------------------------------------




  fin.