Intro:
  
|-------------------------------|
|---------3-6~--6-8-8-6---------|
|----3-5-3-------------7-5-3-5p-|
|---5-5---------------------5---|
|--5----------------------------|
|-------------------------------|

|----3-3-6------6-3--10p-10p-------------14--------------------|
|-3-3-3----(4-6)--------------------14-16----14p~--16-14-------|
|------------------------------13-16-------16-----------16-13~-|
|--------------------------------------------------------------|
|--------------------------------------------------------------|
|--------------------------------------------------------------|

Es muy facil, siempre recomiendo que empiecen despacio y despues al ritmo de Skay.
Por favor critiquenme asi mejoro...

Aguante Skay y los redondos!!!