INTRO:
1|-0-0------------------------|
2|-----3-1--------------------|
3|---------2-0-2--------------|
4|----------------------------|
5|-----------------------0-0--|
6|---------------0-0-0-3------|


RIFF I
1|-0-0-----------------------0-----------------------|
2|-----3-1---------------------3-1-3---1-------------|
3|---------2-0-2---------------------2---------------|
4|---------------------------------------------------|
5|-----------------------0-0---------------------0-0-|
6|---------------0-0-0-3-----------------0-0-0-3-----|


RIFF II
1|-------------------------|
2|---2---3-----------------|
3|-3---3---4---------------|
4|-------------------------|
5|-------------------0-0---|
6|-----------0-0-0-3-------|

Sobre RIFF I	

Llegue a transar na vulcan roja
y alli la conoci
en un tugurio de frontera
visteando en portuñol

ESTRIBILLO I
Sobre RIFF II

Gran Lady!
Gran Lady!

Sobre RIFF I

Lionel Ritchie en el Bar Princesa
soñaba ensoñador
y la gran Lady se tatuaba 
en una hamaca tibia al sol

todo bonito y barato
playeras marca top
billetes rotos de loteria
sembrados por el hall

Sobre RIFF II

Gran Lady!
Gran Lady!

ESTRIBILLO II
1|--------------------------|
2|--------------------------|
3|--------------------------|
4|----2-5-2-----------------|
5|----------0-0-2-55-2-5-5--|
6|--0-----------------------|

La gran Lady te a caricia y no besa oh! no..
es un instante de belleza muy cruel
mira tu suerte en los bulzios 
quita la sal de tus mejillas, feliz.

Sobre RIFF II

Gran Lady!
Gran Lady!

Sobre RIFF I
paredes de carton piedra, un lujo
y el milagro sensual 
de mujeres fantasmas gringas
y morenas joyon

botellas de johnie rojo 
de johnie negro y ron
y de cachaca doncella loca
que calma tu dolor

ESTRIBILLO I

ESTRIBILLO II

ESTRIBILLO I 4 VECES