Intro:

     Lam   Fa  Sol         Mi
|-----0----11--5-3-5-3-3-1-0--|----------------|
|-----1----11-----------------|----------------|
|-----2----22-----------------|----------------|
|---2-2----33-----------------|----------------| X4
|---0-0--3-33-----------------|------0-3-------|
|--------1-11-----------------|--0-3-----------|


          FA   MI   Lam                  FA     MI    Lam  (FA MI)
|----------------------|--------------------------------|
|-1-0------------------|---------------8-10-------------|
|-----2-0--------------|--------7-9-10----------9-------|
|---------3----2-------|-7-9-10-----------------------7-|
|-------------------0--|--------------------------------|
|----------------------|--------------------------------|

Lam      Fa         Mi
Era todo pregunte
         Lam
Soy un iluso    (riff 1)
Lam          Fa       Mi
No nos dimos nada mas
              Lam
Solo un buen gesto   (riff 2)


(repite los mismos tonos)

Mordí el anzuelo una ves mas
Siempre un iluso
Nuestra estrella se agoto
Y era mi lujo

Solo:
          Fa   Mi   Lam                   Fa          Mi
|----------------------|------------------------------------------
|-1-0------------------|----------------8-10---10^-8---8-10-------
|-----2-0--------------|---------7-9-10--------------9------------
|---------3----2-------|--7-9-10----------------------------------
|--------------------0-|------------------------------------------
|----------------------|------------------------------------------


          Lam                           Fa           Mi
|-------------------------------------------------------------------
|-------------------------------------------------------------------
|--9-7----9-----------------------------------7^-7-5-7^-7-5-7^-7-5-4
|------10-----------7-10--7-------7-10------------------------------
|--------------7-10----------7-10-------8---------------------------
|-------------------------------------------------------------------



    Lam                   Fa      Mi       Lam   Fa   Mi
|-----------------------------7-8-10-8-7-8-7-----7-8-7---------|
|-----------------------8-10-----------------10--------9--9-10-|
|-5-4---------------7-9----------------------------------------|
|--------------7-10--------------------------------------------|
|-----7---7-10-------------------------------------------------|
|--------------------------------------------------------------|


Ella fue por esa ves
Mi héroe vivo bah
Fue mi único héroe
En este lío

La mas linda del amor
Que un tonto ah visto soñar
Metió metió mi rock and roll
Bajo este pulso (Lam con cejilla, en el 5to traste)



|----------------|                        |----------------|
|----------------|                        |----------------|
|----------------|                        |----------------|
|----------------| (Riff 1)               |----------------| (Riff 2)
|------0-3-0-----|                        |---3-2----------|
|--0-3-----------|                        |----------------|




Me parece que esta bien... cualquier cosita avisenme... Aguanten los redo!!