RIFF1  
1|--------------------------------------|
2|--------------------------------------|
3|--------------------------------------|
4|--------------------------------------|
5|-----4--5-----4--5-----4--5--7--5--4--|
6|--7--------7--------7-----------------|


RIFF2
1|--------------------------------------|
2|--------------------------------------|
3|--------------------------------------|
4|-----4--5-----4--5-----4--5--7--5--4--|
5|--7--------7--------7-----------------|
6|--------------------------------------|



 La7
Conduje toda la noche, 
reventando los cambios, 
con mis ojos de durax lastimado. 
¡Por Dios! ¡La ruta está trabada y fría! 
Y cae la lluvia en estocadas finas. 
  
RIFF1
¡Ella debe estar tan linda! 
descubriendo mi secreto 
con sus oscuros ojos delatando. 
  
RIFF2
Quiero morder el tallo de su rosa, 
aunque me clave sus uñas espinas. 

La7
Conduje toda la noche, 
reventando los cambios, 
con mis ojos de durax lastimado. 
RIFF1
Y ahora estoy en líos por mi furia, 
sin un centavo encima y cae la lluvia. 
La7
La cara sobre la almohada 
(encadenada de plata) 
está tendiendo la trampa para nuestro amor...