INTRO y RIFF
A|---4-5---4-5---4-5-7-5-4-5-4-| 4v
E|-0-----0-----0---------------|

La7
Conduje toda la noche reventando los cambios
con mis ojos de durax lastimados.
RIFF 4v
¡Por Dios! ¡la ruta está trabada y fría!
RIFF 4v
y cae la lluvia en estofadas finas.

La7
¡Ella debe estar tan linda! descubriendo mi secreto
con sus ojos oscuros delatando.
RIFF 4v
Quiero morder el tallo de su rosa
RIFF 4v
aunque me clave sus uñas espinas.

Estribillo:
E|----------------------------------|
B|----------------------------------|
G|----------------------------4---7-|
D|-----6------6-(7-6)------6----6---|
A|-7-4----7-4----------7-4----------|
E|----------------------------------|
¡Ella está tan linda! ¡Ella es tan linda! No puede durar.

Solo de guitarra (base Riff)

La7
Conduje toda la noche reventando los cambios
con mis ojos de durax lastimados.
RIFF 4v
Y ahora estoy en líos por mi furia
RIFF 4v
sin un centavo encima y cae la lluvia.

La7
La cara sobre la almohada (encadenada de plata)
está tendiendo la trampa para nuestro amor.
RIFF 4v
Y estoy a punto de tirar la esponja

Estribillo

Solo de guitarra (base Riff)

La7
Conduje toda la noche reventando los cambios
con mis ojos de durax lastimados.
RIFF 4v
¡Por Dios! ¡la ruta está trabada y fría!
RIFF 4v
y cae la lluvia en estofadas finas.

La7
¡Ella debe estar tan linda! descubriendo mi secreto
con sus ojos oscuros delatando.
RIFF 4v
Quiero morder el tallo de su rosa
RIFF 4v
aunque me clave sus uñas espinas.

Estribillo

Riff
<-----------------