buenoooooo una vez mas keridos amigos a la orden de 
patricio rey les mando esta tab... ke la disfruten :)

G------------------|
D-----3-5-----3-5-3|  x4
A---3-------3------|
E-3-------3--------|

empieza el saxo.
G-----|
D-----|
A----3|   x8
E-33--|

despues hace
G---------------------------------------------------
D---------------------------------------------------
A---/55-3----/55-3-------/55-3---------3-----3-5-3--
E-3-------33-------/33-5-------3-0-3-5---5-3-------3

G------|--------|
D------|--------|
A------|-----333|  x3
E-5---3|-333----|

G------|--------
D------|--------
A------|--------
E-5---3|-0000000

pre-verso:
G------------
D------------
A---3---3---3 todas las veces ke sea necesario
E-3---3---3--

verso:
G------------
D------------
A---3---3---3 todas las veces ke sea necesario
E-3---3---3--

pre-coro:
G---------------------------------
D---------------------------------
A-------------353----------3------
E-0-3-5-3-0-3-----0-33-0-5---5-3-0
sigue...
G--------------------------
D--------------------------
A---353--------------------
E-3-----5-3-0-33-5-77-5-3-0
siiiiiigue...
G----------------------------
D----------------------------
A-----553--------------------
E-3-5-----5-3-0-33-5-77-5-3-0
coro:
G-------------------|
D-------------------|
A-------------555555|   x3
E-5---3-33333-------|

G----------------
D----------------
A----------------
E-5---3-000000000
despues hace
(saxo)
G--------------
D--------------
A---3---3---3--
E-3---3---3---3

verso (igual ke antes)
pre-coro (iqual ke antes)
coro (igual ke antes)
solo de guitarra:
G--------|
D-----3-5|
A---3----| x24
E-3------|

despues hace:
G-------------------|     G-------------
D-------------------|     D-------------
A-------------------| x3  A-------------
E-5-3-0000000-555555|     E-5-3-00000000

despues hace:
G-----------
D-----------
A---3--3--3-
E-3--3--3--3
coro (igual ke antes)
verso (igual) 
pre-coro (igual ke antes)
coro (igual ke antes)
cierre:
G----------
D-----3-5--
A---3------
E-3-------3
bueno esto es to to toooooooooodo amigosssss
ke la disfruten
ante kualkier duda comentario o correccion o si kieren
hacerse amigos de un bajista
eskribanme a tincho@bassplayer.cc salu2!!!!