RIFF 1:
              x3
e-------------||-----------------|
B-------------||-----------------|
G-----10------||-----------------| 2 veces
D--12----10-9-||------10-12------|
A-------------||-10-9-------10-9-|
E-------------||-----------------|

RIFF 2:
e--------------------------------------------------15p13----------|
B-------12h13p12-----------------------12h13p12----------15p13h15-|
G----10--------------12-10h12p10----12----------------------------|
D-12--------------12-------------12-------------12----------------|2 veces
A-----------------------------------------------------------------|
E-----------------------------------------------------------------|

RIFF 3:
e-----------------------------------------------------------------
B-----------------------------------------------------------------
G----10-12-13-12-10----10-12-13--12----10-12-13-12-10----10-12-13estira
D-12----------------12--------------12----------------12-----------
A-----------------------------------------------------------------
E-----------------------------------------------------------------

RIFF 4:
e--------------------------------------------------------
B--------------------------------------------------------
G----10------10----10------12----10----------------------
D-12----10-9----12----10-9----12----10-9------10-12------
A----------------------------------------10-9-------10-9-
E--------------------------------------------------------

RIFF 5:
e------------------------------------------------------------
B------------------------------------------------------------
G---7-9-10-9-7---7-9-10--9----10-12-13-12-10----10-12-13--12-
D-9------------9-----------12----------------12--------------
A------------------------------------------------------------
E------------------------------------------------------------

INTRO: [RIFF 1] + [RIFF 2] + [RIFF 3] + [RIFF 4]

RIFF 2
Estoy hasta la pasta
De misas cómicas, mal.
A prueba de bobos y a las tres en casa.
¿Querés creer? Oh, no.

RIFF 3

RIFF 4
Dr. Saturno, dame un turno.
Te pido una mejoría.

RIFF 2
Estoy meando la puerta
En tu cueva, doctor de amor.
Los remos muy pinchados
A la moda del rock n’ roll.

RIFF 3

RIFF 4
Me cago en mis huesos que gastan la pana
Mojada en vinagre de nostalgias.

RIFF 2
Voy ciego, tonteando
En la Orquesta Antibalas, no, no.

C5
 Vinos gruesos, mal templados
G5 
 Y ecos de Reputalandia trip.

[ E ] [RIFF 5] + [RIFF 4]

(Silencio)
No marcho en mi vieja murga
Y en las calles no me muestro más.

RIFF 2
Están mis muertos, tan, tan lejos
De la pantalla en que vos te mirás.

RIFF 3

RIFF 4
El hígado crece, el cerebro envejece
Y hay algo muy raro en mi plato.

RIFF 2
Saturno, dame un turno.
Yo espero, con vos, mejorar.
Dulce cadena, dulce condena.
Dios es todo, no puede progresar.

RIFF 3

RIFF 4
Dr. Saturno, dame un turno.
Te pido una leve mejoría.

FINAL: [RIFF 4]x3 + [RIFF 1]