Intro:
        (D)                (C)
A-55-------55------|-33-------33------|
D---77--7----77--7-|---55--5----55--5-| x4
G-----77-------77--|-----55-------55--|

Punteo 1:

A---------------1-1-|
D--------5-4-3-0----|
G-3-2-3-2-----------|
        (Bb)

Punteo 2:

A-5-7-------------------5-0-1-|
D----4-7---8---7-8-7-5-5------|
G--------7--------------------|
 (D)      (Bb)         (D) (Bb)

Nota:La segunda guitarra toca los acordes
     que están entre parentesis

D(como en la intro)
Esa banda inconsolable de perros sin folleto
C(como en la intro)
brujas de alma sencilla, patéticos viajantes.
Re
Pobres tontos, pobres diablos, lunáticos diamantes 
Do
prometidos de carne, lánguidos impalpábles
Bb Punteo 1 D          Punteo 2 Bb-C-D
son...      mis amantes 
            
Llegan buenas nuevas de los escondidos,
de los convalecientes para los sonados.
Mi aliento ya no espera (no hay fiera en mi colmillo)
pero devoro herido el espacio y el brillo
de...      mis amantes

(solo)

Alguna recaida, un poco de hipo brusco,
para los fugitivos marcados a fuego.
Y alguno que otro hechizo (todo muy sencillo)
si nada me conmueve, ni los tiroteos 
de...      mis amantes

Punteo 2 Bb-C-D hasta el final